Cifras e Tablaturas
Heroes del silencio

Heroes del silencio

Bendecida

Compositor : (Heroes del Silencio)

Cifras Cancelar Versão de Impressão Print

Heroes del silencio - Bendecida

Tom: Bm

  			BENDECIDA 
Tiene mucho que decir esta cancion, o si es unas de mis favoritas se la dedico 
a una persona muy especial a MARVELIS URENDA MARTINEZ, se que estas muy lejos de mi 
pero que mas da.... 


INTRO: 
2da Guitarra 
E------------------------------------|----------------------------------| 
B----------4/--2h3p2-----------------|----------4/--2h3p2---------------| 
G----------2/--------4/-----------2/-|----------2/--------4/----------2/| 
D-4--4--4/--------------4--4-4/---2/-|-4--4--4/--------------4--4-4/--2/| 
A-2--2--2/--------------2--2-2/---0/-|-2--2--2/--------------2--2-2/--0/| 
e------------------------------------|----------------------------------| 



2da Guitarra 
E----------|-------------------------------------------| 
B----------|-------------------------------------------| 
G----------|-2/----2-------2/----2/---2-------2--------| 
D----------|-2/------2-2/--2/----2/-2---2-2/--2--------| 
A----------|-0/-0------0/--------0/-------0/-----------| 
e----------|-------------------------------------------| 

1ra Guitarra 
E----------|-------------------------------------------| 
B----------|-------------------------------------------| 
G---7----6-|---------7-----------9----7-----7------7---| 
D-7---7----|-7----7------------7---7-----7----7-7------| 
A----------|-----------------------------------------5-| 
e----------|-------------------------------------------| 



	Bm	        A	   Bm		     A	 
 Si la pri...mirada  es... vale  esto ya... en... las madres 
1ra Guitarra 
E----------------------------------|---------------------------------| 
B----------------------------------|---------------------7-----------| 
G----7-------7--------7-----7----6-|----7-------7-------------7----6-| 
D-7-----7-7-----7---------7---7----|-7-----7-7-----7--------7---7----| 
A------------------5---------------|------------------5--------------| 
e----------------------------------|---------------------------------| 

  A	                             A 
  recuperaré la cordura___          hacía una fosa común cosidos a 
1ra Guitarra 
E----------------------------------|-------------------3-------------| 
B-----------5-----5---------5----3-|-----------5-----5---5-----------| 
G----5--------5-----5-----2---2----|----5--------5------------7----6-| 
D-5-----5-5-----5-----5------------|-5-----5-5-----5--------7---7----| 
A----------------------------------|---------------------------------| 
e----------------------------------|---------------------------------| 

  preguntas_____                 ___agrio 
2da Guitarra 
E-------------------------------------------------| 
B--------------4/--2h3p2--------------------------| 
G--------------2/--------4/------------2/---------| 
D-4--4--4/-------------------4--4-4/---2/---------| 
A-2--2--2/-------------------2--2-2/--------------| 
e-------------------------------------------------| 

1ra Guitarra 
E-------------------------------------------------| 
B-------------------------------------------------| 
G---7-----7----7-----7---6----7-----7----7---6----| 
D-7---7-7---7----7-----7----7---7-7---7----7----7-| 
A------------------5--------------------5---------| 
e-------------------------------------------------| 



 Bm		    A                Bm			A 
 Es... sabor...noche...abandono hoy... el día... in... retorno 
1ra Guitarra 
E----------------------------------|---------------------------------| 
B------------7---------------------|---------------------7-----------| 
G----7----------------7-----7----6-|----7-------7-------------9----7-| 
D-7-----7-7-----7---------7---7----|-7-----7-7-----7--------7---7----| 
A------------------5---------------|------------------5--------------| 
e----------------------------------|---------------------------------| 

 Bm	        A	           Bm	               A	 
    me estorba la memoria        los sentidos me distraen y se 
1ra Guitarra 
E----3-----------------------------|-3-------------------------------| 
B-----------5-----5----------------|---5---------5----------5--------| 
G-5-----------5-----5-------9----7-|-----5----5----5-----5----5------| 
D-------5-5-----5-----5---7---7----|-------5----5----5-5---5----5----| 
A----------------------------------|---------------------------------| 
e----------------------------------|---------------------------------| 



  D 
Equivocan__ en___  las__  aguas__  de_  la_   certeza_  nos_  hicimos__ 
1ra Guitarra 
E---------2-------------------------|---------2-------------------------| 
B---3-------3-----3-2-3---3-----3---|---3-------3-----3-2-3---3-----3---| 
G-----2-2-----2-2-------2---2-2---2-|-----2-2-----2-2-------2---2-2---2-| 
D-0-------------------0-------------|-0---------------------------------| 
A-----------------------------------|-----------------------------------| 
e-----------------------------------|-----------------------------------| 

 Bm	 
 La_  promesa_  de_  los__ lagos_  de__ Pokhara__         uhhhhh___ 
1ra Guitarra 
E---------2-------------------------|---------2-------------------------| 
B---3-------3-----3-2-3------5----3-|---3-------3-----3-2-3------5----3-| 
G-----4-4-----4-4-------4-2----2----|-----4-4-----4-4-------4-2----2----| 
D-2---------------------------------|-2---------------------------------| 
A-----------------------------------|-----------------------------------| 
e-----------------------------------|-----------------------------------| 

  G			         D             A 
  y el perfume que emane del sexo se   fundirá en nuevo grito 
1ra Guitarra 
E-3--3------------3-3--3-------|-2-----2-----|-0-0---0---0-0-| 
B-4-----4-----4---4-4-----4----|---3-----3---|-2-2-2-2-2-2-2-| 
G-5--------5------5-5--------5-|-----2-----2-|-2-2-2-2-2-2-2-| 
D-5----------------------------|-------------|-2-2-2-2-2-2-2-| 
A-3----------------------------|-------------|-0---0---0-----| 
e-3----------------------------|-------------|-0-------------| 

2da Guitarra 
E-------------------------------------------------| 
B--------------4/--2h3p2--------------------------| 
G--------------2/--------4/------------2/---------| 
D-4--4--4/-------------------4--4-4/---2/---------| 
A-2--2--2/-------------------2--2-2/--------------| 
e-------------------------------------------------| 

1ra Guitarra 
E-------------------------------------------------| 
B-------------------------------------------------| 
G---7-----7----7--------------7-----7----7---6----| 
D-7---7-7---7----7--------------7-7---7----7----7-| 
A------------------5--------------------5---------| 
e-------------------------------------------------| 



	   Bm             A	    Bm		        A	 
 Nun.. ha co... en con...  muy finos_ de ellos huyo como un fugitivo 
1ra Guitarra 
E----------------------------------|---------------------------------| 
B----------------------------------|---------------------7-----------| 
G----7-------7---------------------|----7-------7-------------9----7-| 
D-7-----7-7-----7------------------|-7-----7-7-----7--------7---7----| 
A------------------5---------------|------------------5--------------| 
e----------------------------------|---------------------------------| 

 A	                            A	 
  y amansas  el  oleaje que rompe  contra  mis  venas  purificas el 
1ra Guitarra 
E----------------------------------|-3-------------------------------| 
B-----------------5----------------|---5---------5----------5--------| 
G----5-------5------5-------9----7-|-----5----5----5-----5----5------| 
D-5-----5-5-----5-----5---7---7----|-------5----5----5-5---5----5----| 
A----------------------------------|---------------------------------| 
e----------------------------------|---------------------------------| 



 D 
Aire_____ en___  las__  aguas__  de_  la_   certeza_  nos_  hicimos__ 
1ra Guitarra 
E---------2-------------------------|---------2-------------------------| 
B---3-------3-----3-2-3---3-----3---|---3-------3-----3-2-3---3-----3---| 
G-----2-2-----2-2-------2---2-2---2-|-----2-2-----2-2-------2---2-2---2-| 
D-0-------------------0-------------|-0---------------------------------| 
A-----------------------------------|-----------------------------------| 
e-----------------------------------|-----------------------------------| 

 Bm	 
1ra Guitarra 
 La_  promesa_  de_  los__ lagos_  de__ Pokhara__         uhhhhh___ 
E---------2-------------------------|---------2-------------------------| 
B---3-------3-----3-2-3------5----3-|---3-------3-----3-2-3------5----3-| 
G-----4-4-----4-4-------4-2----2----|-----4-4-----4-4-------4-2----2----| 
D-2---------------------------------|-2---------------------------------| 
A-----------------------------------|-----------------------------------| 
e-----------------------------------|-----------------------------------| 

  G			         D             A 
  y el perfume que emane del sexo se   fundirá en nuevo grito 
1ra Guitarra 
E-3--3------------3-3--3-------|-2-----2-----|-0-0---0---0-0-| 
B-4-----4-----4---4-4-----4----|---3-----3---|-2-2-2-2-2-2-2-| 
G-5--------5------5-5--------5-|-----2-----2-|-2-2-2-2-2-2-2-| 
D-5----------------------------|-------------|-2-2-2-2-2-2-2-| 
A-3----------------------------|-------------|-0---0---0-----| 
e-3----------------------------|-------------|-0-------------| 

     Bm                        D          A             Bm       
de las brasas de una constelación al mundo perecedero 
2da Guitarra 
E--------------------------|-------------|------------------------------| 
B--------------------------|-------------|------------------------------| 
G--------------------------|-------------|---------------------4-----4--| 
D-4/-----------------------|-7/----------|-2--2--2-2----4-4--4-----4----| 
A-2/-----------------------|-5/----------|-0--0--0-0----2-2------2------| 
e--------------------------|-------------|------------------------------| 

1ra Guitarra 
E-2--2---------------------|-2--2--------|-0-----0-----2--2-------------| 
B-3-------3----------------|-3--------3--|-2-----2-----3-----3----------| 
G-4-------------4----------|-2-----------|-2-----2-----4----------------| 
D-4------------------------|-0-----------|-2-----2-----4----------------| 
A-2------------------------|-------------|-0-----------2----------------| 
e-2------------------------|-------------|------------------------------| 

  Bm                A               Em   G   Bm 
  bendecida fue la causa de mi fortuna 
2da Guitarra 
E----------------|----------------|-----------------| 
B----------------|----------------|-----------------| 
G----------------|----------------|-----------------| 
D-4/-------------|-2/-------------|-2-2--5-5--4-4/--| 
A-2/-------------|-0/-------------|-2-2--5-5--2-2/--| 
e----------------|----------------|-----------------| 

1ra Guitarra 
E-2--------------|-0--------------|-0-0--3-3--2-2--2-| 
B-3--------------|-2--------------|-0-0--3-3--3-3--3-| 
G-4--------------|-2--------------|-0-0--4-4--4-4--4-| 
D-4--------------|-2--------------|-2-2--5-5--4-4--4-| 
A-2--------------|-0--------------|-2-2--5-5--2-2--2-| 
e-2--------------|----------------|------------------| 

   Bm                       D             A             Bm 
   y de la tierra perdida la infancia al mundo perecedero 
2da Guitarra 
E--------------------------|-------------|------------------------------| 
B--------------------------|-------------|------------------------------| 
G--------------------------|-------------|---------------------4-----4--| 
D-4/-----------------------|-7/----------|-2--2--2-2----4-4--4-----4----| 
A-2/-----------------------|-5/----------|-0--0--0-0----2-2------2------| 
e--------------------------|-------------|------------------------------| 

1ra Guitarra 
E-2--2---------------------|-2--2--------|-0-----0-----2--2-------------| 
B-3-------3----------------|-3--------3--|-2-----2-----3-----3----------| 
G-4-------------4----------|-2-----------|-2-----2-----4----------------| 
D-4------------------------|-0-----------|-2-----2-----4----------------| 
A-2------------------------|-------------|-0-----------2----------------| 
e-2------------------------|-------------|------------------------------| 

Bm                A               Em   G   Bm 
  bendecida fue la causa de mi fortuna 
2da Guitarra 
E----------------|----------------|-----------------| 
B----------------|----------------|-----------------| 
G----------------|----------------|-----------------| 
D-4/-------------|-2/-------------|-2-2--5-5--4-4/--| 
A-2/-------------|-0/-------------|-2-2--5-5--2-2/--| 
e----------------|----------------|-----------------| 

1ra Guitarra 
E-2--------------|-0--------------|-0-0--3-3--2-2--2-| 
B-3--------------|-2--------------|-0-0--3-3--3-3--3-| 
G-4--------------|-2--------------|-0-0--4-4--4-4--4-| 
D-4--------------|-2--------------|-2-2--5-5--4-4--4-| 
A-2--------------|-0--------------|-2-2--5-5--2-2--2-| 
e-2--------------|----------------|------------------| 

  F#m                      Bm                     F#m            A 
  algo que no me han consentido y que ahora busco entre tus huesos 
2da Guitarra 
E------------------------|--------------------|-------------|-----------| 
B------------------------|--------------------|-------------|-----------| 
G------------------------|--------------------|-------------|-----------| 
D------------------------|-4-4--4-4--4-4--4-4-|-------------|-2-2-2-2-2/| 
A-4---4---4---4---4---4--|-2-2--2-2--2-2--2-2-|-4-4-4-4-4-4-|-0-0-0-0-0/| 
e-2---2---2---2---2---2--|--------------------|-2-2-2-2-2-2-|-----------| 

  F#m                       Bm                    F#m         A        
  algo que no este tan lejos creí que no era, creí que no era  
2da Guitarra 
E------------------------|--------------------|-------------|-----------| 
B------------------------|--------------------|-------------|-----------| 
G------------------------|--------------------|-------------|-----------| 
D------------------------|-4-4--4-4--4-4--4-4-|-------------|-2-2-2-2-2/| 
A-4---4---4---4---4---4--|-2-2--2-2--2-2--2-2-|-4-4-4-4-4-4-|-0-0-0-0-0/| 
e-2---2---2---2---2---2--|--------------------|-2-2-2-2-2-2-|-----------| 

                                            Bm                      A 
 haaa haaa haaaa haaaa haaaa creí que no era mi estilo 
2da Guitarra 
E------------------------------------------|----------------------------| 
B------------------------------------------|------------2h3p2-----------| 
G------------------------------------------|--------4/--------4/--------| 
D-2---2----2--2--2--2--2--2--2----2---2/---|-4--4/--2/----------4-4--2/-| 
A-0---0----0--0--0--0--0--0--0----0---0/---|-2--2/--------------2-2--0/-| 
e------------------------------------------|----------------------------| 



	          Bm                 A                        
cuando abandones tus sueños sabrás que has muerto 
2da Guitarra 
E--------------|-----------------|-----------------| 
B--------------|-----------------|-----------------| 
G--------------|-----------------|-----------------| 
D--------------|-4/------4/------|-2/------2/------| 
A--------------|-2/------2/------|-0/------0/------| 
e--------------|-----------------|-----------------| 

               Bm                  A 
y los gusanos esperan hambrientos 
2da Guitarra 
E--------------|-----------------|-----------------| 
B--------------|-----------------|-----------------| 
G--------------|-----------------|-----------------| 
D--------------|-4/------4/------|-2/------2/------| 
A--------------|-2/------2/------|-0/------0/------| 
e--------------|-----------------|-----------------| 
  
       A                          A  
   oriente no cree en el sarcasmo que antaño nos gobernó soy el  
2da Guitarra 
E--------------------------------|-----------------------------| 
B--------------------------------|-----------------------------| 
G--------------------------------|-----------------------------| 
D---2/----2--2----2/-------------|-2/----2--2----2/------------| 
A---0/----0--0----0/-------------|-0/----0--0----0/------------| 
e--------------------------------|-----------------------------| 



D 
León domado en___  las__  aguas__  de_  la_   certeza_  nos_  hicimos__ 
1ra Guitarra 
E---------2-------------------------|---------2-------------------------| 
B---3-------3-----3-2-3---3-----3---|---3-------3-----3-2-3---3-----3---| 
G-----2-2-----2-2-------2---2-2---2-|-----2-2-----2-2-------2---2-2---2-| 
D-0-------------------0-------------|-0---------------------------------| 
A-----------------------------------|-----------------------------------| 
e-----------------------------------|-----------------------------------| 

 Bm	 
1ra Guitarra 
 La_  promesa_  de_  los__ lagos_  de__ Pokhara__         uhhhhh___ 
E---------2-------------------------|---------2-------------------------| 
B---3-------3-----3-2-3------5----3-|---3-------3-----3-2-3------5----3-| 
G-----4-4-----4-4-------4-2----2----|-----4-4-----4-4-------4-2----2----| 
D-2---------------------------------|-2---------------------------------| 
A-----------------------------------|-----------------------------------| 
e-----------------------------------|-----------------------------------| 

  G			         D             A 
  y el perfume que emane del sexo se   fundirá en nuevo grito 
1ra Guitarra 
E-3--3------------3-3--3-------|-2-----2-----|-0-0---0---0-0-| 
B-4-----4-----4---4-4-----4----|---3-----3---|-2-2-2-2-2-2-2-| 
G-5--------5------5-5--------5-|-----2-----2-|-2-2-2-2-2-2-2-| 
D-5----------------------------|-------------|-2-2-2-2-2-2-2-| 
A-3----------------------------|-------------|-0---0---0-----| 
e-3----------------------------|-------------|-0-------------| 

     Bm                        D          A             Bm       
de las brasas de una constelación al mundo perecedero 
2da Guitarra 
E--------------------------|-------------|------------------------------| 
B--------------------------|-------------|------------------------------| 
G--------------------------|-------------|---------------------4-----4--| 
D-4/-----------------------|-7/----------|-2--2--2-2----4-4--4-----4----| 
A-2/-----------------------|-5/----------|-0--0--0-0----2-2------2------| 
e--------------------------|-------------|------------------------------| 

1ra Guitarra 
E-2--2---------------------|-2--2--------|-0-----0-----2--2-------------| 
B-3-------3----------------|-3--------3--|-2-----2-----3-----3----------| 
G-4-------------4----------|-2-----------|-2-----2-----4----------------| 
D-4------------------------|-0-----------|-2-----2-----4----------------| 
A-2------------------------|-------------|-0-----------2----------------| 
e-2------------------------|-------------|------------------------------| 

  Bm                A               Em   G   Bm 
  bendecida fue la causa de mi fortuna 
2da Guitarra 
E----------------|----------------|-----------------| 
B----------------|----------------|-----------------| 
G----------------|----------------|-----------------| 
D-4/-------------|-2/-------------|-2-2--5-5--4-4/--| 
A-2/-------------|-0/-------------|-2-2--5-5--2-2/--| 
e----------------|----------------|-----------------| 

1ra Guitarra 
E-2--------------|-0--------------|-0-0--3-3--2-2--2-| 
B-3--------------|-2--------------|-0-0--3-3--3-3--3-| 
G-4--------------|-2--------------|-0-0--4-4--4-4--4-| 
D-4--------------|-2--------------|-2-2--5-5--4-4--4-| 
A-2--------------|-0--------------|-2-2--5-5--2-2--2-| 
e-2--------------|----------------|------------------| 

   Bm                       D             A             Bm 
   y de la tierra perdida la infancia al mundo perecedero 
2da Guitarra 
E--------------------------|-------------|------------------------------| 
B--------------------------|-------------|------------------------------| 
G--------------------------|-------------|---------------------4-----4--| 
D-4/-----------------------|-7/----------|-2--2--2-2----4-4--4-----4----| 
A-2/-----------------------|-5/----------|-0--0--0-0----2-2------2------| 
e--------------------------|-------------|------------------------------| 

1ra Guitarra 
E-2--2---------------------|-2--2--------|-0-----0-----2--2-------------| 
B-3-------3----------------|-3--------3--|-2-----2-----3-----3----------| 
G-4-------------4----------|-2-----------|-2-----2-----4----------------| 
D-4------------------------|-0-----------|-2-----2-----4----------------| 
A-2------------------------|-------------|-0-----------2----------------| 
e-2------------------------|-------------|------------------------------| 

Bm                A               Em   G   Bm 
  bendecida fue la causa de mi fortuna 
2da Guitarra 
E----------------|----------------|-----------------| 
B----------------|----------------|-----------------| 
G----------------|----------------|-----------------| 
D-4/-------------|-2/-------------|-2-2--5-5--4-4/--| 
A-2/-------------|-0/-------------|-2-2--5-5--2-2/--| 
e----------------|----------------|-----------------| 

1ra Guitarra 
E-2--------------|-0--------------|-0-0--3-3--2-2--2-| 
B-3--------------|-2--------------|-0-0--3-3--3-3--3-| 
G-4--------------|-2--------------|-0-0--4-4--4-4--4-| 
D-4--------------|-2--------------|-2-2--5-5--4-4--4-| 
A-2--------------|-0--------------|-2-2--5-5--2-2--2-| 
e-2--------------|----------------|------------------| 

  F#m                      Bm                     F#m            A 
  algo que no me han consentido y que ahora busco entre tus huesos 
2da Guitarra 
E------------------------|--------------------|-------------|-----------| 
B------------------------|--------------------|-------------|-----------| 
G------------------------|--------------------|-------------|-----------| 
D------------------------|-4-4--4-4--4-4--4-4-|-------------|-2-2-2-2-2/| 
A-4---4---4---4---4---4--|-2-2--2-2--2-2--2-2-|-4-4-4-4-4-4-|-0-0-0-0-0/| 
e-2---2---2---2---2---2--|--------------------|-2-2-2-2-2-2-|-----------| 

  F#m                       Bm                    F#m         A        
  algo que no este tan lejos creí que no era, creí que no era  
2da Guitarra 
E------------------------|--------------------|-------------|-----------| 
B------------------------|--------------------|-------------|-----------| 
G------------------------|--------------------|-------------|-----------| 
D------------------------|-4-4--4-4--4-4--4-4-|-------------|-2-2-2-2-2/| 
A-4---4---4---4---4---4--|-2-2--2-2--2-2--2-2-|-4-4-4-4-4-4-|-0-0-0-0-0/| 
e-2---2---2---2---2---2--|--------------------|-2-2-2-2-2-2-|-----------| 

                                          Bm                A   
 haaa haaa haaaa haaaa haaaa creí que no era mi estilo 
2da Guitarra 
E------------------------------------------|-----------------| 
B------------------------------------------|-----------------| 
G------------------------------------------|-----------------| 
D-2---2----2--2--2--2--2--2--2----2---2/---|-4--4--4/--------| 
A-0---0----0--0--0--0--0--0--0----0---0/---|-2--2--2/--------| 
e------------------------------------------|-----------------| 

1ra Guitarra 
E------------------------------------------|-----------------| 
B------------------------------------------|-----------------| 
G------------------------------------------|---------7---6---| 
D------------------------------------------|-------7---7---7-| 
A------------------------------------------|-----------------| 
e------------------------------------------|-----------------| 

             A 
2da Guitarra 
E-----------|-----------------------------------| 
B-----------|-----------------------------------| 
G-----------|-----------------------------------| 
D-4--4--4/--|-2/---2--2--2/----2--2--2/---2/----| 
A-2--2--2/--|-0/---0--0--0/----0--0--0/---0/----| 
e-----------|-----------------------------------| 

1ra Guitarra 
E-----------|-----------------------------------| 
B-----------|-----------------------------------| 
G---7---6---|-----7-----------9----7------------| 
D-7---7---7-|-7------------7----7-----7---------| 
A-----------|-----------------------------------| 
e-----------|-----------------------------------| 


Dudas quejas o algun otro comentario no hay problema. 

    	
fixar
fixar inscrever-se

enviado porenviado por: JESSBT
cifra enviadaCorrigida por: sem correções
logo top cifrasComente
ico música do artistaMúsicas deste artista
ico curtiuCurtiu?
ico destaqueDestaque
Petaxxon Comunicação Online

Cifras.com.br - Melhor e mais completo site de cifras e tablaturas do Brasil Mais de 1 milhão de acordes de músicas cadastradas desde 2003
As informações contidas no nosso site são colaborações de seus usuários e podem conter erros, sendo assim, não nos responsabilizamos sobre nenhuma destas.

close
menos
mais
close
Cor dos acordes:

Cor da letra:

close
Alinhar acordes a direita Alinhar acordes a esquerda Alinhar acordes em baixo Alinhar acordes no topo
close
  Mostrar todos os acordes Esconder acordes muito fáceis Esconder acordes fáceis Esconder acordes intermediários
redimensionar
glossário