Cifras e Tablaturas
Her's

Her's

You Dont Know This Guy

Cifras Cancelar Versão de Impressão
cifras

Her's - You Dont Know This Guy

fixar na tela  
Exibindo: vídeo-aula ver clipes redimensionar

Tom:

  Intro 
e|----------------7-------10-----------0-----------0------------------------------| 
B|-7------10-------------------------3---3-------2---2---------3-----------0------| 
G|---7-------7-------7------7------4-------4---3-------3-----4---4-------1---1----| 
D|-7---7--7----7--7----7--7---7--5-----------4-------------4-------4---2-------1--| 
A|-------------------------------------------------------2-----------2------------| 
E|--------------------------------------------------------------------------------| 

e|--------------------0--------------------------0----------------------------| 
B|-------3/5\3--2--------------2-----------2------------2---------------------| 
G|-----0----------0-----0--------0-------0---0-----0------0-------------------| 
D|-0h3---3/5\3--2---2------2-------2---2-------2-----2------2-----------------| 
A|-----------------------------------0----------------------------------------| 
E|----------------------------------------------------------------------------| 

e|----------------7-------10-----------0-----------0------------------------------| 
B|-7------10-------------------------3---3-------2---2---------3-----2------------| 
G|---7-------7-------7------7------4-------4---3-------3-----4---4-----1-------1--| 
D|-7---7--7----7--7----7--7---7--5-----------4-------------4-------4-----2---2----| 
A|-------------------------------------------------------2-----------------2------| 
E|--------------------------------------------------------------------------------| 

e|--------------------0--------------------------0----------------------------| 
B|-------3/5\3--2--------------2-----------2------------2---------------------| 
G|-----0----------0-----0--------0-------0---0-----0------0-------------------| 
D|-0h3---3/5\3--2---2------2-------2---2-------2-----2------2-----------------| 
A|-----------------------------------0----------------------------------------| 
E|----------------------------------------------------------------------------| 

Verse 
e|---------------------------------------------0-----2------3----------------| 
B|--3---------3---2------0-------0h2p0-------2---2-----2------2--------------| 
G|----0-----0-------0-------0----------0----0------0-0---0--0--0-------------| 
D|--4---4-4-------2---2--2----2---2------1/2---------------------------------| 
A|---------------------------------------------------------------------------| 
E|---------------------------------------------------------------------------| 

e|---------------------------------------------0-----2------3----------------| 
B|--3---------3---2------0-------0h2h0-------2---2-----2----2----------------| 
G|----0-----0-------0-------0----------0----0------0-0---0--2----------------| 
D|--4---4-4-------2---2--2----2---2------1/2---------------------------------| 
A|---------------------------------------------------------------------------| 
E|---------------------------------------------------------------------------| 

e|---------------------------------------------0-----2------3----------------| 
B|--3---------3---2------0-------0h2p0-------2---2-----2------2--------------| 
G|----0-----0-------0-------0----------0----0------0-0---0--0--0-------------| 
D|--4---4-4-------2---2--2----2---2------1/2---------------------------------| 
A|---------------------------------------------------------------------------| 
E|---------------------------------------------------------------------------| 

e|---------------------------------------------0-----2------3----------------| 
B|--3---------3---2------0-------0h2h0-------2---2-----2----2----------------| 
G|----0-----0-------0-------0----------0----0------0-0---0--2----------------| 
D|--4---4-4-------2---2--2----2---2------1/2---------------------------------| 
A|---------------------------------------------------------------------------| 
E|---------------------------------------------------------------------------| 

Chorus 
e|----------------7-------10-----------0-----------0------------------------------| 
B|-7------10-------------------------3---3-------2---2---------3-----------0------| 
G|---7-------7-------7------7------4-------4---3-------3-----4---4-------1---1----| 
D|-7---7--7----7--7----7--7---7--5-----------4-------------4-------4---2-------1--| 
A|-------------------------------------------------------2-----------2------------| 
E|--------------------------------------------------------------------------------| 

e|--------------------0--------------------------0----------------------------| 
B|-------3/5\3--2--------------2-----------2------------2---------------------| 
G|-----0----------0-----0--------0-------0---0-----0------0-------------------| 
D|-0h3---3/5\3--2---2------2-------2---2-------2-----2------2-----------------| 
A|-----------------------------------0----------------------------------------| 
E|----------------------------------------------------------------------------| 

e|----------------7-------10-----------0-----------0------------------------------| 
B|-7------10-------------------------3---3-------2---2---------3-----2------------| 
G|---7-------7-------7------7------4-------4---3-------3-----4---4-----1-------1--| 
D|-7---7--7----7--7----7--7---7--5-----------4-------------4-------4-----2---2----| 
A|-------------------------------------------------------2-----------------2------| 
E|--------------------------------------------------------------------------------| 

e|--------------------0--------------------9-----9------12-----14-------------| 
B|-------3/5\3--2--------------2-------------8-----8------8----14-------------| 
G|-----0----------0-----0--------0-------0-----9-----9-----9---14-------------| 
D|-0h3---3/5\3--2---2------2-------2---2---0-----0-------0-----17-------------| 
A|-----------------------------------0----------------------------------------| 
E|----------------------------------------------------------------------------| 

Outro 
e|-13/14---9/10----14/15-----7--6--5---13/14---9/10---14/15----7--6--5-------| 
B|-13/14---9/10----14/15-----7--6--5---13/14---9/10---14/15----7--6--5-------| 
G|-13/14---9/10----14/15-----7--6--5---13/14---9/10---14/15----7--6--5-------| 
D|---------------------------------------------------------------------------| 
A|---------------------------------------------------------------------------| 
E|---------------------------------------------------------------------------| 

e|----------------7-------10-----------0-----------0------------------------------| 
B|-7------10-------------------------3---3-------2---2---------3-----------0------| 
G|---7-------7-------7------7------4-------4---3-------3-----4---4-------1---1----| 
D|-7---7--7----7--7----7--7---7--5-----------4-------------4-------4---2-------1--| 
A|-------------------------------------------------------2-----------2------------| 
E|--------------------------------------------------------------------------------| 

e|--------------------0--------------------------0----------------------------| 
B|-------3/5\3--2--------------2-----------2------------2---------------------| 
G|-----0----------0-----0--------0-------0---0-----0------0-------------------| 
D|-0h3---3/5\3--2---2------2-------2---2-------2-----2------2-----------------| 
A|-----------------------------------0----------------------------------------| 
E|----------------------------------------------------------------------------| 

e|----------------7-------10-----0------0-------------------------------------| 
B|-7------10---------------------3------2-----3----0--------------------------| 
G|---7-------7-------7------7----4------3-----4----1--------------------------| 
D|-7---7--7----7--7----7--7---7--5------4-----4----2--------------------------| 
A|--------------------------------------------2----2--------------------------| 
E|----------------------------------------------------------------------------| 

e|--------------------0--------------------9-----9------12-----14-------------| 
B|-------3/5\3--2--------------2-------------8-----8------8----14-------------| 
G|-----0----------0-----0--------0-------0-----9-----9-----9---14-------------| 
D|-0h3---3/5\3--2---2------2-------2---2---0-----0-------0-----17-------------| 
A|-----------------------------------0----------------------------------------| 
E|----------------------------------------------------------------------------| 



************************************ 

| /  Slide up 
| \  Slide down 
| h  Hammer-on 
| p  Pull-off 

************************************ 
  

top 5 | her's
top rock'n roll
Outras músicas do artista letras do(a) Her's
Top cifras »Top artistas »
Petaxxon Comunicação Online
Cifras.com.br - Melhor e mais completo site de cifras e tablaturas do Brasil
Mais de 1 milhão de acordes de músicas cadastradas desde 2003
As informações contidas no nosso site são colaborações de seus usuários e podem conter erros, sendo assim, não nos responsabilizamos sobre nenhuma destas.
close
menos
mais
close
Cor dos acordes:

Cor da letra:

 

save
close
close
 
redimensionar