Cifras e Tablaturas
Highly Suspect

Highly Suspect

Bloodfeather

Cifras Cancelar Versão de Impressão
cifras

Highly Suspect - Bloodfeather

fixar na tela  
Exibindo: vídeo-aula ver clipes redimensionar
  
Intro - 0:00 
B |---------------------------------------------------------------------------| 
F#|--------------------------------10-12--------------------------------------| 
D |--------------------------------10-12--------------------------------------| 
A |--12p10h12--12p10h12--12p10h12---------------------------------------------| 4x 
E |---------------------------------------------------------------------------| 
A |---------------------------------------------------------------------------| 

B |---------------------------------------------------------------------------| 
F#|--------------------------------10-12--------------------------------10----| 
D |--------------------------------10-12--------------------------------10----| 
A |--12p10h12--12p10h12--12p10h12---------12p10h12--12p10h12--12p10h12--------| 2x 
E |---------------------------------------------------------------------------| 
A |---------------------------------------------------------------------------| 

verse 1 - 0:18 
B |---------------------------------------------------------------------------| 
F#|---------------------------------------------------------------------------| 
D |---------------------------------------------------------------------------| 
A |--12--------8--------5-5-5-5-5-5-5-5-3h5-5-5-5-5-5-5-5---------------------| 4x 
E |--12-(x8)---8-(x8)---5-5-5-5-5-5-5-5-3h5-5-5-5-5-5-5-5---------------------| 
A |--12--------8--------5-5-5-5-5-5-5-5-3h5-5-5-5-5-5-5-5---------------------| 

B |---------------------------------------------------------------------------| 
F#|---------------------------------------------------------------------------| 
D |---------------------------------------------------------------------------| 
A |---------------------------------------------------------------------------| 
E |---------------------------------------------------------------------------| 
A |--/19--17--17/19--15\------------------------------------------------------| 

Chorus 1 - 0:58 
B |---------------------------------------------------------------------------| 
F#|---------------------------------------------------------------------------| 
D |---------------------------------------------------------------------------| 
A |--8-8--3-3--0--10h12-10h12--10h12-10h12--10h12p10--------------------------| 2x 
E |--8-8--3-3--0--10h12-10h12--10h12-10h12--10h12p10--------------------------| 
A |--8-8--3-3--0--10h12-10h12--10h12-10h12--10h12p10--------------------------| 

B |---------------------------------------------------------------------------| 
F#|---------------------------------------------------------------------------| 
D |---------------------------------------------------------------------------| 
A |--8-8--10-10--12--10h12-10h12--10h12-10h12--10h12p10-----------------------|  
E |--8-8--10-10--12--10h12-10h12--10h12-10h12--10h12p10-----------------------| 
A |--8-8--10-10--12--10h12-10h12--10h12-10h12--10h12p10-----------------------| 

B |---------------------------------------------------------------------------| 
F#|---------------------------------------------------------------------------| 
D |---------------------------------------------------------------------------| 
A |--8-8--3-3-----------------------------------------------------------------| 
E |--8-8--3-3-----------------------------------------------------------------| 
A |--8-8--3-3-----------------------------------------------------------------| 

verse 2 - 1:17 
B |---------------------------------------------------------------------------| 
F#|---------------------------------------------------------------------------| 
D |---------------------------------------------------------------------------| 
A |--12--------8--------5-5-5-5-5-5-5-5-3h5-5-5-5-5-5-3-0---------------------|  
E |--12-(x8)---8-(x8)---5-5-5-5-5-5-5-5-3h5-5-5-5-5-5-3-0-(let ring)----------| 
A |--12--------8--------5-5-5-5-5-5-5-5-3h5-5-5-5-5-5-3-0---------------------| 

1:35 
B |---------------------------------------------------------------------------| 
F#|---------------------------------------------------------------------------| 
D |--7-7-7-7-7-7-7-7-7-7-7-7-7-7-7-7-7-7-7-7-7-7-7-7-7-7-7-7-7-7-7-7----------| 
A |--0-0-0-0-0-0-0-0-8-8-8-8-8-8-8-8-5-5-5-5-5-5-5-5-5-5-5-5-5-5-5-5----------| 2x 
E |---------------------------------------------------------------------------| 
A |---------------------------------------------------------------------------| 

B |---------------------------------------------------------------------------| 
F#|---------------------------------------------------------------------------| 
D |---------------------------------------------------------------------------| 
A |---------------------------------------------------------------------------| 
E |---------------------------------------------------------------------------| 
A |--/19--17--17/19--15\------------------------------------------------------| 

Chorus 2 - 1:55 
B |---------------------------------------------------------------------------| 
F#|---------------------------------------------------------------------------| 
D |---------------------------------------------------------------------------| 
A |--8-8--3-3--0--10h12-10h12--10h12-10h12--10h12p10--------------------------| 2x 
E |--8-8--3-3--0--10h12-10h12--10h12-10h12--10h12p10--------------------------| 
A |--8-8--3-3--0--10h12-10h12--10h12-10h12--10h12p10--------------------------| 

B |---------------------------------------------------------------------------| 
F#|---------------------------------------------------------------------------| 
D |---------------------------------------------------------------------------| 
A |--8-8--10-10--12--10h12-10h12--10h12-10h12--10h12p10-----------------------|  
E |--8-8--10-10--12--10h12-10h12--10h12-10h12--10h12p10-----------------------| 
A |--8-8--10-10--12--10h12-10h12--10h12-10h12--10h12p10-----------------------| 

B |---------------------------------------------------------------------------| 
F#|---------------------------------------------------------------------------| 
D |---------------------------------------------------------------------------| 
A |--8-8--3-3-----------------------------------------------------------------| 
E |--8-8--3-3-----------------------------------------------------------------| 
A |--8-8--3-3-----------------------------------------------------------------| 

Bridge - 2:13 
B |---------------------------------------------------------------------------| 
F#|---------------------------------------------------------------------------| 
D |---------------------------------------------------------------------------| 
A |-0----7---5-7-8---8-7-5--3-2-----------------------------------------------| 2x 
E |-0----7---5-7-8---8-7-5--3-2-----------------------------------------------| 
A |-0----7---5-7-8---8-7-5--3-2-----------------------------------------------| 

B |---------------------------------------------------------------------------| 
F#|---------------------------------------------------------------------------| 
D |---------------------------------------------------------------------------| 
A |-0-0-0-0-7-7-7-5-7-8-8-8-8-7-5-5-5-3---------------------------------------| 
E |-0-0-0-0-7-7-7-5-7-8-8-8-8-7-5-5-5-3---------------------------------------| 
A |-0-0-0-0-7-7-7-5-7-8-8-8-8-7-5-5-5-3---------------------------------------| 

B |---------------------------------------------------------------------------| 
F#|---------------------------------------------------------------------------| 
D |---------------------------------------------------------------------------| 
A |-0----7---5-7-8---7-8-11--12-----------------------------------------------| 
E |-0----7---5-7-8---7-8-11--12-----------------------------------------------| 
A |-0----7---5-7-8---7-8-11--12-----------------------------------------------| 

verse 3 - 2:53 
B |---------------------------------------------------------------------------| 
F#|--------------------------------10-12--------------------------------10----| 
D |--------------------------------10-12--------------------------------10----| 
A |--12p10h12--12p10h12--12p10h12---------12p10h12--12p10h12--12p10h12--------| 4x 
E |---------------------------------------------------------------------------| 
A |---------------------------------------------------------------------------| 

Solo - 3:13 
B |---------12----12b-------------------15--15---15--15----15--15---12br------| 
F#|-/15--15----15------15--15-13-12-12----12---12--12---12---12---------13-15-| 
D |---------------------------------------------------------------------------| 
A |---------------------------------------------------------------------------| 
E |---------------------------------------------------------------------------| 
A |---------------------------------------------------------------------------| 

B |--------------------------------15--15---15--15----15--15---15b-15-13-15\--| 
F#|-15--15/17b-17-15--15-13-12-12----12---12--12---12---12--------------------| 
D |---------------------------------------------------------------------------| 
A |---------------------------------------------------------------------------| 
E |---------------------------------------------------------------------------| 
A |---------------------------------------------------------------------------| 

Chorus 3 - 3:33 
B |---------------------------------------------------------------------------| 
F#|---------------------------------------------------------------------------| 
D |---------------------------------------------------------------------------| 
A |--8-8--3-3--0--10h12-10h12--10h12-10h12--10h12p10--------------------------| 2x 
E |--8-8--3-3--0--10h12-10h12--10h12-10h12--10h12p10--------------------------| 
A |--8-8--3-3--0--10h12-10h12--10h12-10h12--10h12p10--------------------------| 

B |---------------------------------------------------------------------------| 
F#|---------------------------------------------------------------------------| 
D |---------------------------------------------------------------------------| 
A |--8-8--10-10--12--10h12-10h12--10h12-10h12--10h12p10-----------------------|  
E |--8-8--10-10--12--10h12-10h12--10h12-10h12--10h12p10-----------------------| 
A |--8-8--10-10--12--10h12-10h12--10h12-10h12--10h12p10-----------------------| 

B |---------------------------------------------------------------------------| 
F#|---------------------------------------------------------------------------| 
D |---------------------------------------------------------------------------| 
A |--8-8--3-3-----------------------------------------------------------------| 
E |--8-8--3-3--(feedback)-----------------------------------------------------| 
A |--8-8--3-3-----------------------------------------------------------------| 


************************************ 

| h   Hammer-on 
| p   Pull-off 
| b   Bend 
| br  Bend release 
| /   Slide up 
| \   Slide down 

************************************ 
  

top 5 | highly suspect
top rock'n roll
Outras músicas do artista letras do(a) Highly Suspect
Top cifras »Top artistas »
Petaxxon Comunicação Online
Cifras.com.br - Melhor e mais completo site de cifras e tablaturas do Brasil
Mais de 1 milhão de acordes de músicas cadastradas desde 2003
As informações contidas no nosso site são colaborações de seus usuários e podem conter erros, sendo assim, não nos responsabilizamos sobre nenhuma destas.
close
menos
mais
close
Cor dos acordes:

Cor da letra:

 

save
close
close
 
redimensionar