Cifras e Tablaturas
Highly Suspect

Highly Suspect

Claudeland

Cifras Cancelar Versão de Impressão
cifras

Highly Suspect - Claudeland

fixar na tela  
Exibindo: vídeo-aula ver clipes redimensionar

Tom:

  
Intro 

e|-------5-5-------5-5-------5-5-------5-5-------5-5-5--| 
B|-------5-5-------5-5-------5-5-------5-5-------5-5-5--| 
G|--9b11------9b11------9b11-----9b11-------9b11--------|   
D|------------------------------------------------------| 
A|------------------------------------------------------| 
E|------------------------------------------------------| 

e|-------5-5-------5-5-------5-5-------5-5-------5-5-5--| 
B|-------5-5-------5-5-------5-5-------5-5-------5-5-5--| 
G|--9b11------9b11------9b11-----9b11-------9b11--------|   
D|------------------------------------------------------| 
A|------------------------------------------------------| 
E|------------------------------------------------------| 

e|-------5-5-------5-5-------5-5-------5-5-------5-5-5--| 
B|-------5-5-------5-5-------5-5-------5-5-------5-5-5--| 
G|--9b11------9b11------9b11-----9b11-------9b11--------|   
D|------------------------------------------------------| 
A|------------------------------------------------------| 
E|------------------------------------------------------| 

e|--10-10-10-10-9-9-9-9-------------| 
B|--10-10-10-10-9-9-9-9-------------| 
G|----------------------9b11-9-7----| 
D|-------------------------------9--| 
A|----------------------------------| 
E|----------------------------------| 

e|--7--5-7--5-7--5-7-7--5-7--5-7--5-7-7--| 
B|--7--5-7--5-7--5-7-7--5-7--5-7--5-7-7--| 
G|--8--6-8--6-8--6-8-8--6-8--6-8--6-8-8--| 
D|--9--7-9--7-9--7-9-9--7-9--7-9--7-9-9--| 
A|--9--7-9--7-9--7-9-9--7-9--7-9--7-9-9--| 
E|--7--5-7--5-7--5-7-7--5-7--5-7--5-7-7--| 

Bass solo~ 

e|-------------| 
B|-------------| 
G|-------------|  Strum frequently on slide down 
D|---9s3--7h9--| 
A|-------------| 
E|-------------| 


Verse 

e|--7--5-7--5-7--5-7-7--5-7--5-7--5-7-7--| 
B|--7--5-7--5-7--5-7-7--5-7--5-7--5-7-7--| 
G|--8--6-8--6-8--6-8-8--6-8--6-8--6-8-8--|   
D|--9--7-9--7-9--7-9-9--7-9--7-9--7-9-9--| 
A|--9--7-9--7-9--7-9-9--7-9--7-9--7-9-9--| 
E|--7--5-7--5-7--5-7-7--5-7--5-7--5-7-7--| 

e|--7--5-7--5-7--5-7-7--5-7--5-7--5-7-7--| 
B|--7--5-7--5-7--5-7-7--5-7--5-7--5-7-7--| 
G|--8--6-8--6-8--6-8-8--6-8--6-8--6-8-8--|   
D|--9--7-9--7-9--7-9-9--7-9--7-9--7-9-9--| 
A|--9--7-9--7-9--7-9-9--7-9--7-9--7-9-9--| 
E|--7--5-7--5-7--5-7-7--5-7--5-7--5-7-7--| 

e|------X-X-X--5-5-X-X-X--7-70707070707-7--7--7--7--7--7---| 
B|------X-X-X--5-5-X-X-X--7-70707070707-7--7--7--7--7--7---| 
G|--1-1-X-X-X--7-7-X-X-X--8-88888888888-11-11-11-11-11-11--| 
D|--3-3-X-X-X--8-8-X-X-X--9-99999999999-7--7--7--7--7--7---| 
A|--3-3-X-X-X--8-8-X-X-X--9-99999999999-7--7--7--7--7--7---| 
E|------X-X-X--5-5-X-X-X--7-70707070707-7--7--7--7--7--7---| 

e|--7--5-7--5-7--5-7-7--5-7--5-7--5-7-7--| 
B|--7--5-7--5-7--5-7-7--5-7--5-7--5-7-7--| 
G|--8--6-8--6-8--6-8-8--6-8--6-8--6-8-8--|   
D|--9--7-9--7-9--7-9-9--7-9--7-9--7-9-9--| 
A|--9--7-9--7-9--7-9-9--7-9--7-9--7-9-9--| 
E|--7--5-7--5-7--5-7-7--5-7--5-7--5-7-7--| 

e|--7--5-7--5-7--5-7-7--5-7--5-7--5-7-7--| 
B|--7--5-7--5-7--5-7-7--5-7--5-7--5-7-7--| 
G|--8--6-8--6-8--6-8-8--6-8--6-8--6-8-8--|   
D|--9--7-9--7-9--7-9-9--7-9--7-9--7-9-9--| 
A|--9--7-9--7-9--7-9-9--7-9--7-9--7-9-9--| 
E|--7--5-7--5-7--5-7-7--5-7--5-7--5-7-7--| 

e|------X-X-X--5-5-X-X-X--7-70707070707-7--7--7--7--7--7---| 
B|------X-X-X--5-5-X-X-X--7-70707070707-7--7--7--7--7--7---| 
G|--1-1-X-X-X--7-7-X-X-X--8-88888888888-11-11-11-11-11-11--| 
D|--3-3-X-X-X--8-8-X-X-X--9-99999999999-7--7--7--7--7--7---| 
A|--3-3-X-X-X--8-8-X-X-X--9-99999999999-7--7--7--7--7--7---| 
E|------X-X-X--5-5-X-X-X--7-70707070707-7--7--7--7--7--7---| 


Interlude 

e|----------------------| 
B|----------------------| 
G|----------------7s9-7-|   
D|----4-6p4---7-6-------| 
A|----------7-----------| 
E|--0-------------------| 

e|----------------------| 
B|----------------------| 
G|----------------7s9-7-|   
D|----4-6p4---7-6-------| 
A|----------7-----------| 
E|--0-------------------| 

e|--7--5-7--5-7--5-7--5-7--5-7--5-7--| 
B|--7--5-7--5-7--5-7--5-7--5-7--5-7--| 
G|--8--6-8--6-8--6-8--6-8--6-8--6-8--|   
D|--9--7-9--7-9--7-9--7-9--7-9--7-9--|      
A|--9--7-9--7-9--7-9--7-9--7-9--7-9--| 
E|--7--5-7--5-7--5-7--5-7--5-7--5-7--| 

e|--7--5-7--5-7--5-7--5-7--5-7--5-7-7--| 
B|--7--5-7--5-7--5-7--5-7--5-7--5-7-7--| 
G|--8--6-8--6-8--6-8--6-8--6-8--6-8-8--|   
D|--9--7-9--7-9--7-9--7-9--7-9--7-9-9--|      
A|--9--7-9--7-9--7-9--7-9--7-9--7-9-9--| 
E|--7--5-7--5-7--5-7--5-7--5-7--5-7-7--| 

e|----------------------| 
B|----------------------| 
G|----------------7s9-7-|   
D|----4-6p4---7-6-------| 
A|----------7-----------| 
E|--0-------------------| 

e|----------------------| 
B|----------------------| 
G|----------------7s9-7-|   
D|----4-6p4---7-6-------| 
A|----------7-----------| 
E|--0-------------------| 

e|--7--5-7--5-7--5-7--5-7--5-7--5-7--| 
B|--7--5-7--5-7--5-7--5-7--5-7--5-7--| 
G|--8--6-8--6-8--6-8--6-8--6-8--6-8--|   
D|--9--7-9--7-9--7-9--7-9--7-9--7-9--|      
A|--9--7-9--7-9--7-9--7-9--7-9--7-9--| 
E|--7--5-7--5-7--5-7--5-7--5-7--5-7--| 

e|--7--5-7--5-7--5-7--5-7--5-7--5-7-7--| 
B|--7--5-7--5-7--5-7--5-7--5-7--5-7-7--| 
G|--8--6-8--6-8--6-8--6-8--6-8--6-8-8--|   
D|--9--7-9--7-9--7-9--7-9--7-9--7-9-9--|      
A|--9--7-9--7-9--7-9--7-9--7-9--7-9-9--| 
E|--7--5-7--5-7--5-7--5-7--5-7--5-7-7--| 


Chorus 

e|--------------------------------------------------------------------| 
B|--------------------------------------------------------------------| 
G|--7-7-777--9-9-999-----------------1-1-111--------------------------| 
D|--7-7-777--9-9-999-9-9-999-9-9-999-2-2-222-7-7-777-5-5-555-5-5-555--| 
A|--5-5-555--7-7-777-9-9-999-9-9-999-2-2-222-7-7-777-5-5-555-5-5-555--| 
E|-------------------7-7-777-7-7-777---------5-5-555-3-3-333-3-3-333--| 

e|----------------------------------------------------------------------------------------------------| 
B|----------------------------------------------------------------------------------------------------| 
G|--7-7-777--9-9-999-----------------1-1-111----------------------------------------------------------| 
D|--7-7-777--9-9-999-9-9-999-9-9-999-2-2-222-7-7-777-5-5-555-5-5-555-5-5-555-5-5-555-7-7-777-9-9-999--| 
A|--5-5-555--7-7-777-9-9-999-9-9-999-2-2-222-7-7-777-5-5-555-5-5-555-5-5-555-5-5-555-7-7-777-9-9-999--| 
E|-------------------7-7-777-7-7-777---------5-5-555-3-3-333-3-3-333-3-3-333-3-3-333-5-5-555-7-7-777--| 
  
e|------------------------------------------------------------------| 
B|-----------------77-77-77-77-9-7-77-77-77-77-9-7-77-77-77-77-9-7--| 
G|-----------------77-77-77-77-9-7-77-77-77-77-9-7-77-77-77-77-9-7--| 
D|--10-10-101010-----9--9--9------9--9--9--9------9--9--9--9--------| 
A|--10-10-101010----------------------------------------------------| 
E|--8--8--8-8-8--0--------------------------------------------------| 

Drum solo~ 

e|-------------------------------------------| 
B|-------------------------------------------| 
G|-----------77777777-99999999---------------|  
D|--99999999-77777777-99999999-999999999999--| 
A|--77777777-55555555-77777777-999999999999--| 
E|--77777777-------------------700700700700--| 

e|-------------------------------------------| 
B|-------------------------------------------| 
G|-----------77777777-99999999---------------|  
D|--99999999-77777777-99999999-999999999999--| 
A|--77777777-55555555-77777777-999999999999--| 
E|--77777777-------------------700700700700--| 


Solo 

e|-------5-5-------5-5-------5-5-------5-5-------5-5-5--| 
B|-------5-5-------5-5-------5-5-------5-5-------5-5-5--| 
G|--9b11------9b11------9b11-----9b11-------9b11--------|   
D|------------------------------------------------------| 
A|------------------------------------------------------| 
E|------------------------------------------------------| 

e|-------5-5-------5-5-------5-5-------5-5-------5-5-5--| 
B|-------5-5-------5-5-------5-5-------5-5-------5-5-5--| 
G|--9b11------9b11------9b11-----9b11-------9b11--------|   
D|------------------------------------------------------| 
A|------------------------------------------------------| 
E|------------------------------------------------------| 

e|-------5-5-------5-5-------5-5-------5-5------------------------------------------------------------------| 
B|-------5-5-------5-5-------5-5-------5-5------------------------------------------------------------------| 
G|--9b11------9b11------9b11-----9b11-------9b11p7---7---7-9b11p7-9s11-9-7-9-7-9b11-9b11-9b11-9b11r9p7-9-7--| 
D|-------------------------------------------------9---9---------------------------------------------------9| 
A|----------------------------------------------------------------------------------------------------------| 
E|----------------------------------------------------------------------------------------------------------| 

e|---------------------------------10----10-12b15-12b15-12p10----10----10-12b15r12p10----10----10-10-12-10-10| 
B|---------------------------10-12----12----------------------12----12----------------12----12---------------| 
G|--9b11-9b11-9b11-9b11-9s12---------------------------------------------------------------------------------| 
D|-----------------------------------------------------------------------------------------------------------| 
A|-----------------------------------------------------------------------------------------------------------| 
E|-----------------------------------------------------------------------------------------------------------| 

e|--15-10-15-10-12-10-12-10-12b15-12b15-12b15-12b15-12-10-10--10-12-10--12b15-15p12--12b15-15p12--12b15-15p12| 
G|-----------------------------------------------------------------------------------------------------------| 
D|-----------------------------------------------------------------------------------------------------------| 
A|-----------------------------------------------------------------------------------------------------------| 
E|-----------------------------------------------------------------------------------------------------------| 
B|-----------------------------------------------------------------------------------------------------------| 

e|--12b15-15p12-15b17-15p12-15p12-10--10-12-10-12b15-12b15-12p10----10------------------------------| 
B|---------------------------------------------------------------12----12-12-12-12p10---------------| 
G|------------------------------------------------------------------------------------12p10-10s9-9-7| 
D|--------------------------------------------------------------------------------------------------| 
A|--------------------------------------------------------------------------------------------------| 
E|--------------------------------------------------------------------------------------------------| 

e|--7--5-7--5-7--5-7-7--5-7--5-7--5-7-7--| 
B|--7--5-7--5-7--5-7-7--5-7--5-7--5-7-7--| 
G|--8--6-8--6-8--6-8-8--6-8--6-8--6-8-8--|  keep playing till lyrics end 
D|--9--7-9--7-9--7-9-9--7-9--7-9--7-9-9--| 
A|--9--7-9--7-9--7-9-9--7-9--7-9--7-9-9--| 
E|--7--5-7--5-7--5-7-7--5-7--5-7--5-7-7--| 


Outro 

e|---------------------------------------------------------------------------| 
B|-----------------------9----9b5-9b5r9----9b5-9b5r9-------------------------| 
G|--9b12--------12r9--7-------------------------------------------------5----| 
D|------------------------------------------------------------------5-7------| 
A|----------------------------------------------------------5-6-7-7----------| 
E|---------------------------------------------------------------------------| 

e|-------7---------| 
B|---------10-7-7--| 
G|--9b12-----------| Repeat quicker and quicker (see song) 
D|-----------------| 
A|-----------------| 
E|-----------------| 

e|--10b12-7-10-7-10-------------------------------------------------------------| 
B|--------------------10b12-10b12------12r10------------------------------------| 
G|--------------------------------------------9b12r9p7---9----------------------| 
D|-----------------------------------------------------9---9b12-9b12-7-9-7------| 
A|-------------------------------------------------------------------------5-6-7| 
E|------------------------------------------------------------------------------| 


************************************ 

| h  Hammer-on 
| p  Pull-off 
| r  Release 
| b  Bend 
| s  Slap 
| X  Dead note 

************************************ 
  

top 5 | highly suspect
top rock'n roll
Outras músicas do artista letras do(a) Highly Suspect
Top cifras »Top artistas »
Petaxxon Comunicação Online
Cifras.com.br - Melhor e mais completo site de cifras e tablaturas do Brasil
Mais de 1 milhão de acordes de músicas cadastradas desde 2003
As informações contidas no nosso site são colaborações de seus usuários e podem conter erros, sendo assim, não nos responsabilizamos sobre nenhuma destas.
close
menos
mais
close
Cor dos acordes:

Cor da letra:

 

save
close
close
 
redimensionar