Cifras e Tablaturas
Highly Suspect

Highly Suspect

Postres

Cifras Cancelar Versão de Impressão
cifras

Highly Suspect - Postres

fixar na tela  
Exibindo: vídeo-aula ver clipes redimensionar

Tom:

  
Intro  
(0:00) 
e|------16br-----------------------------------------------------------------| 
B|-----------15--------------------------------------------------------------| 
G|--------------15-----------------------------------------------------------| 
D|---------------------------------------------------------------------------| 
A|---------------------------------------------------------------------------| 
E|---------------------------------------------------------------------------| 

Chorus 
(0:05) 
e|---------------------------------------------------------------------------| 
B|---------------------------------------------------------------------------| 
G|---------------------------------------------------------------------------| 
D|--8-------4--------13-------8----------------------------------------------|  (x2) 
A|--8-(x7)--4-(x12)--13-(x3)--8-(x8)-----------------------------------------| 
E|--6-------2--------11-------6----------------------------------------------| 

Verse  
(0:18) 
e|---------------------------------------------------------------------------| 
B|---------------------------------------------------------------------------| 
G|---------------------------------------------------------------------------| 
D|--8-8--8-8-8--8-8-8--8-8-8--8-8-8--8-8-8--8-8-8--8-8-8----5-5-5-5--4-4-4-4-|  (x2) 
A|--8-8--8-8-8--8-8-8--8-8-8--8-8-8--8-8-8--8-8-8--8-8-8----5-5-5-5--4-4-4-4-| 
E|--6-6--6-6-6--6-6-6--6-6-6--6-6-6--6-6-6--6-6-6--6-6-6----3-3-3-3--2-2-2-2-| 

e|---------------------------------------------------------------------------| 
B|---------------------------------------------------------------------------| 
G|-----------------------------13br------------------------------------------| 
D|--8-8-8-8-8-8-8-8-8-8-8-8---------12---------------------------------------| 
A|--8-8-8-8-8-8-8-8-8-8-8-8------------13------------------------------------| 
E|--6-6-6-6-6-6-6-6-6-6-6-6--------------------------------------------------| 

Chorus 
(0:41) 
e|---------------------------------------------------------------------------| 
B|---------------------------------------------------------------------------| 
G|---------------------------------------------------------------------------| 
D|--8-------4--------13-------8----------------------------------------------|  (x2) 
A|--8-(x7)--4-(x12)--13-(x3)--8-(x8)-----------------------------------------| 
E|--6-------2--------11-------6----------------------------------------------| 

Verse 
(0:55) 
e|---------------------------------------------------------------------------| 
B|---------------------------------------------------------------------------| 
G|---------------------------------------------------------------------------| 
D|--8-8--8-8-8--8-8-8--8-8-8--8-8-8--8-8-8--8-8-8--8-8-8----5-5-5-5--4-4-4-4-|  (x2) 
A|--8-8--8-8-8--8-8-8--8-8-8--8-8-8--8-8-8--8-8-8--8-8-8----5-5-5-5--4-4-4-4-| 
E|--6-6--6-6-6--6-6-6--6-6-6--6-6-6--6-6-6--6-6-6--6-6-6----3-3-3-3--2-2-2-2-| 

e|---------------------------------------------------------------------------| 
B|---------------------------------------------------------------------------| 
G|---------------------------------------------------------------------------| 
D|--8-8-8-8-8-8-8-8-8-8-8-8-8-8-8-8------------------------------------------| 
A|--8-8-8-8-8-8-8-8-8-8-8-8-8-8-8-8------------------------------------------| 
E|--6-6-6-6-6-6-6-6-6-6-6-6-6-6-6-6------------------------------------------| 

Pre-Chorus 
(1:18) 
e|---------------------------------------------------------------------------| 
B|---------------------------------------------------------------------------| 
G|---------------------------------------------------------------------------| 
D|--16-------13-------12-----------------------------------------------------| (x3) 
A|--16-(x3)--13-(x4)--12-(x9)------------------------------------------------| 
E|--14-------11-------10-----------------------------------------------------| 

e|---------------------------------------------------------------------------| 
B|---------------------------------------------------------------------------| 
G|---------------------------------------------------------------------------| 
D|-11-11-11-11-11-11-11-11-10-10-10-10-10-10-10-10---------------------------| 
A|-11-11-11-11-11-11-11-11-10-10-10-10-10-10-10-10---------------------------| 
E|--9--9--9--9--9--9--9--9--8--8--8--8--8--8--8--8---------------------------| 

Chorus  
(1:32) 
e|---------------------------------------------------------------------------| 
B|---------------------------------------------------------------------------| 
G|---------------------------------------------------------------------------| 
D|--8-------4--------13-------8----------------------------------------------|  (x2) 
A|--8-(x7)--4-(x12)--13-(x3)--8-(x8)-----------------------------------------| 
E|--6-------2--------11-------6----------------------------------------------| 

Outro  
(1:45) 
e|---------------------------------------------------------------------------| 
B|---------------------------------------------------------------------------| 
G|---------------------------------------------------------------------------| 
D|--8-------16-------13------12----------------------------------------------| 
A|--8-(x7)--16-(x11)-13-(x4)-12-(x9)-----------------------------------------| 
E|--6-------14-------11------10----------------------------------------------| 

e|---------------------------------------------------------------------------| 
B|---------------------------------------------------------------------------| 
G|---------------------------------------------------------------------------| 
D|--8-------4--------13-------8----------------------------------------------| 
A|--8-(x7)--4-(x12)--13-(x3)--8-(x8)-----------------------------------------| 
E|--6-------2--------11-------6----------------------------------------------| 

e|---------------------------------------------------------------------------| 
B|---------------------------------------------------------------------------| 
G|---------------------------------------------------------------------------| 
D|--8-------16-------4-------13-------8--------------------------------------|  (x2) 
A|--8-(x7)--16-(x8)--4-(x4)--13-(x3)--8-(x8)---------------------------------| 
E|--6-------14-------2-------11-------6--------------------------------------| 

e|---------------------------------------------------------------------------| 
B|---------------------------------------------------------------------------| 
G|---------------------------------------------------------------------------| 
D|--8-------16-------13------12----------------------------------------------| 
A|--8-(x7)--16-(x11)-13-(x4)-12-(x9)-----------------------------------------| 
E|--6-------14-------11------10----------------------------------------------| 

e|---------------------------------------------------------------------------| 
B|---------------------------------------------------------------------------| 
G|---------------------------------------------------------------------------| 
D|--8-------4--------13-------8----------------------------------------------|   
A|--8-(x7)--4-(x12)--13-(x3)--8-(let ring)-----------------------------------| 
E|--6-------2--------11-------6----------------------------------------------| 


************************************ 

| br  Bend release 

************************************ 
  

top 5 | highly suspect
top rock'n roll
Outras músicas do artista letras do(a) Highly Suspect
Top cifras »Top artistas »
Petaxxon Comunicação Online
Cifras.com.br - Melhor e mais completo site de cifras e tablaturas do Brasil
Mais de 1 milhão de acordes de músicas cadastradas desde 2003
As informações contidas no nosso site são colaborações de seus usuários e podem conter erros, sendo assim, não nos responsabilizamos sobre nenhuma destas.
close
menos
mais
close
Cor dos acordes:

Cor da letra:

 

save
close
close
 
redimensionar