Cifras e Tablaturas
Hinds

Hinds

Fat Calmed Kiddos

Cifras Cancelar Versão de Impressão
cifras

Hinds - Fat Calmed Kiddos

fixar na tela  
Exibindo: vídeo-aula ver clipes redimensionar

Tom:

  
Intro 
Carlotta: 
E|-2---------2--5-4-2-| 
B|-----2-4-2----------| 
G|--------------------| 
D|--------------------| 
A|--------------------| 
E|--------------------| 

Ana: 

E|-2-----------2------| 
B|-2-----------2------| 
G|-3-----------3------| 
D|-4-----------4------| 
A|-4-----------4------| 
E|-2-----------2------| 

Verse 
Carlotta:        Pre-Chorus (only played in first verse): 

E|--5-4-2-| x4   E|-2-4-2-4-2-4--5-4-2| 
B|--------|      B|--2-4-2-4-2-4------| 
G|--------|      G|---3-5-3-5-3-5-----| 
D|--------|      D|-------------------| 
A|--------|      A|-------------------| 
E|--------|      E|-------------------| 

Ana: 
Plays between these two chords (listen for strumming) then these three: 

E|-2-4-| x3 E|-6-4-2-| 
B|-2-4-|    B|-6-4-2-| 
G|-3-5-|    G|-7-5-3-| 
D|-4-6-|    D|-8-6-4-| 
A|-4-6-|    A|-8-6-4-| 
E|-2-4-|    E|-6-4-2-| 

This is played 4 times in the verse. 

Chorus 
Carlotta: (I think she strums this, but I may be wrong, listen again for strumming pattern) 

E|-2-1-6-4-| x8 Then this before the second Verse: E|----2--------2--5-4-2| 
B|-2-1-6-4-|                                       B|-2-4-----2-4---------| 
G|-3-2-5-5-|                                       G|---------------------| 
D|-x-x-x-x-|                                       D|---------------------| 
A|-x-x-x-x-|                                       A|---------------------| 
E|-x-x-x-x-|                                       E|---------------------| 

Ana: 

E|-2-1-6-4-| x8 Then this before second Verse:  E|-2-4-| x3 E|-6-4-2-| 
B|-2-1-6-4-|                                    B|-2-4-|    B|-6-4-2-| 
G|-3-2-7-5-|                                    G|-3-5-|    G|-7-5-3-| 
D|-4-3-8-6-|                                    D|-4-6-|    D|-8-6-4-| 
A|-4-3-8-6-|                                    A|-2-6-|    A|-8-6-4-| 
E|-2-1-6-4-|                                    E|-2-4-|    E|-6-4-2-| 

Outro 
Carlotta: 

E|----2---------2--5-4-2--2-4-2------2-4-2-----2-4-2-----5-4-2-| 
B|-2-4----2-4-2-----------------4-2-4-----4-2-4-----4-2-4------| 
G|-------------------------------------------------------------| 
D|-------------------------------------------------------------| 
A|-------------------------------------------------------------| 
E|-------------------------------------------------------------| 

E|-2-4-2------2-4-2-----2-4-2-----5-4-2-| 
B|-------4-2-4-----4-2-4-----4-2-4------| 
G|--------------------------------------| 
D|--------------------------------------| 
A|--------------------------------------| 
E|--------------------------------------| 

Ana: (listen again for timings and strumming patterns) 

E|-2-4-| x8 E|-6-4-2-| 
B|-2-4-|    B|-6-4-2-| 
G|-3-5-|    G|-7-5-3-| 
D|-4-6-|    D|-8-6-4-| 
A|-4-6-|    A|-8-6-4-| 
E|-2-4-|    E|-6-4-2-| 



************************************ 

| x  Dead note  

************************************ 
  

top 5 | hinds
top rock'n roll
Outras músicas do artista letras do(a) Hinds
Top cifras »Top artistas »
Petaxxon Comunicação Online
Cifras.com.br - Melhor e mais completo site de cifras e tablaturas do Brasil
Mais de 1 milhão de acordes de músicas cadastradas desde 2003
As informações contidas no nosso site são colaborações de seus usuários e podem conter erros, sendo assim, não nos responsabilizamos sobre nenhuma destas.
close
menos
mais
close
Cor dos acordes:

Cor da letra:

 

save
close
close
 
redimensionar