Cifras e Tablaturas
Hole

Hole

Chad

Cifras Cancelar Versão de Impressão
cifras

Hole - Chad

fixar na tela  
Exibindo: vídeo-aula ver clipes redimensionar

Tom:

  
Intro / Verse: 

e|--------------------------------3-3-2-2-2-2-----3-3-2-2-2-2--| 
B|----------------------------2-2-0-0-3-3-3-3-2-2-0-0-3-3-3-3--| 
G|------------6-6-6-6---------2-2-0-0-2-2-2-2-2-2-0-0-2-2-2-2--| 
D|-5h7-5h7-7-----------5h7-7--2-2-0-0---------2-2-0-0----------| 
A|--------------------------------2-2-------------2-2----------| 
E|--------------------------------3-3-------------3-3----------| 

    I forgot to tell you  
    That you're just not good enough 
    Chad 


Chorus: 

e|------------------------------------| 
B|------------------------------------| 
G|-------------------7-7-7-7-7-7------| 
D|-7-7-7-7--5-5-5-5--7-7-7-7-7-7------| 
A|-7-7-7-7--5-5-5-5--5-5-5-5-5-5------| 
E|-5-5-5-5--3-3-3-3-------------------| 

    Do it for the rest 
    Do it for the best 
    Do it for the rest 
    Do it for the rest 
    Goodbye, Chad 
    Goodbye, Chad 



*************** 
h = hammer-on 
*************** 
  

top 5 | hole
top rock alternativo
Outras músicas do artista letras do(a) Hole
Top cifras »Top artistas »
Petaxxon Comunicação Online
Cifras.com.br - Melhor e mais completo site de cifras e tablaturas do Brasil
Mais de 1 milhão de acordes de músicas cadastradas desde 2003
As informações contidas no nosso site são colaborações de seus usuários e podem conter erros, sendo assim, não nos responsabilizamos sobre nenhuma destas.
close
menos
mais
close
Cor dos acordes:

Cor da letra:

 

save
close
close
 
redimensionar