Cifras e Tablaturas
Hollywood Undead

Hollywood Undead

Your Life

Cifras Cancelar Versão de Impressão
cifras

Hollywood Undead - Your Life

fixar na tela  
Exibindo: vídeo-aula ver clipes redimensionar
  
Intro 
no guitar 

verse 1 
(Clean) 
D#|--------------------| 
A#|--------------------| 
F#|11---12---11--------|(x4) 
C#|---9----9----9-12-9-| 
G#|--------------------| 
D#|--------------------| 

(Distortion) 
D#|----------------|----------------|----------------|----------------| 
A#|----------------|----------------|----------------|----------------| 
F#|----------------|----------------|----------------|----------------|(x2) 
C#|----------------|----------------|----------------|----------0-----| 
G#|----------------|----------2---2-|----------------|--------2-----2-| 
D#|0-------------0-|3-------3-------|0-------------0-|3-----3---------| 

D#|----------------|----------------|----------------|----------------| 
A#|----------------|----------------|----------------|----------------| 
F#|----------------|----------------|----------------|----------------| 
C#|----------------|----------------|----------------|----------------| 
G#|2-------2-------|2-------2-------|2---2---2---2---|2---------------| 
D#|0-------0-------|0-------0-------|0---0---0---0---|0---------------| 

Chorus 
D#|--------------------------------|--------------------------------| 
A#|--------------------------------|--------------------------------| 
F#|--------------------------------|--------------------------------|(x3) 
C#|--------------------------------|--------------------------------| 
G#|2-------2-------2-3-3-3-3-3-3-3-|5-------5-------0-2-2-2-2-2-2-2-| 
D#|0-------0-----------------------|3-------3-----------------------| 

D#|---------------| 
A#|---------------| 
F#|---------------| 
C#|-------4-------| 
G#|5------2-------| 
D#|3--------------| 

Interlude 
(Clean) 
D#|--------------------| 
A#|--------------------| 
F#|11---12---11--------|(x2) 
C#|---9----9----9-12-9-| 
G#|--------------------| 
D#|--------------------| 

verse 2 
(Distortion) 
D#|----------------|----------------|----------------|----------------| 
A#|----------------|----------------|----------------|----------------| 
F#|----------------|----------------|----------------|----------------|(x2) 
C#|----------------|----------------|----------------|----------0-----| 
G#|----------------|----------2---2-|----------------|--------2-----2-| 
D#|0-------------0-|3-------3-------|0-------------0-|3-----3---------| 

D#|----------------|----------------|----------------|----------------| 
A#|----------------|----------------|----------------|----------------| 
F#|----------------|----------------|----------------|----------------| 
C#|----------------|----------------|----------------|----------------| 
G#|2-------2-------|2-------2-------|2---2---2---2---|2---------------| 
D#|0-------0-------|0-------0-------|0---0---0---0---|0---------------| 

Chorus 
D#|--------------------------------|--------------------------------| 
A#|--------------------------------|--------------------------------| 
F#|--------------------------------|--------------------------------|(x4) 
C#|--------------------------------|--------------------------------| 
G#|2-------2-------2-3-3-3-3-3-3-3-|5-------5-------0-2-2-2-2-2-2-2-| 
D#|0-------0-----------------------|3-------3-----------------------| 

Bridge 
No guitar for 8 measures 

then 
(Clean) 
D#|--------------------| 
A#|--------------------| 
F#|11---12---11--------|(x3) 
C#|---9----9----9-12-9-| 
G#|--------------------| 
D#|--------------------| 

D#|--------------------| 
A#|--------------------| 
F#|11---12---11--------| 
C#|---9----9----9-12---| 
G#|--------------------| 
D#|--------------------| 

Chorus 
D#|--------------------------------|--------------------------------| 
A#|--------------------------------|--------------------------------| 
F#|--------------------------------|--------------------------------|(x4) 
C#|--------------------------------|--------------------------------| 
G#|2-------2-------2-3-3-3-3-3-3-3-|5-------5-------0-2-2-2-2-2-2-2-| 
D#|0-------0-----------------------|3-------3-----------------------| 

Outro 
(Clean) 
D#|--------------------| 
A#|--------------------| 
F#|11---12---11--------|(x4) 
C#|---9----9----9-12-9-| 
G#|--------------------| 
D#|--------------------| 
  

top 5 | hollywood undead
top rock alternativo
Outras músicas do artista letras do(a) Hollywood Undead
3.
Pray
Top cifras »Top artistas »
Petaxxon Comunicação Online
Cifras.com.br - Melhor e mais completo site de cifras e tablaturas do Brasil
Mais de 1 milhão de acordes de músicas cadastradas desde 2003
As informações contidas no nosso site são colaborações de seus usuários e podem conter erros, sendo assim, não nos responsabilizamos sobre nenhuma destas.
close
menos
mais
close
Cor dos acordes:

Cor da letra:

 

save
close
close
 
redimensionar