Cifras e Tablaturas
Hombres G

Hombres G

He de saber (TAB)

Cifras Cancelar Versão de Impressão Print

Hombres G - He de saber (TAB)

Tom:

  			Es una muy buena canción, y dice así: 
 
 
Intro: 
 
e-7--7------------- 
B--9--9-7-9-10-9--- x4 
G----------------9- 
 
Después del verso biene un riff parecido pero no es igual: 
 
e-7--7------------7--7------------9-8-9-7-- 
B--9--9-7-9-10-9---9--9-7-9-10-9----------- 
G---------------9---------------9---------- 
 
Al final se repite el riff inicial.... 
 
e-7--7------------- 
B--9--9-7-9-10-9--- 
G----------------9- 
 
y la 2da guitarra hace: 
 
e-------------------------------- 
B--5-4-2----------5-4-2---------- 
G--------4-2-1-----------1-2-4---x2 
D-------------2---------2-------- 
 
Bueno muchachones eso es todo, espero que les guste 
 
 

    	
fixar
fixar inscrever-se

enviado porenviado por: gruol
cifra enviadaCorrigida por: sem correções
logo top cifrasComente
ico música do artistaMúsicas deste artista
ico curtiuCurtiu?
ico destaqueDestaque
Petaxxon Comunicação Online

Cifras.com.br - Melhor e mais completo site de cifras e tablaturas do Brasil Mais de 1 milhão de acordes de músicas cadastradas desde 2003
As informações contidas no nosso site são colaborações de seus usuários e podem conter erros, sendo assim, não nos responsabilizamos sobre nenhuma destas.

close
menos
mais
close
Cor dos acordes:

Cor da letra:

close
Alinhar acordes a direita Alinhar acordes a esquerda Alinhar acordes em baixo Alinhar acordes no topo
close
  Mostrar todos os acordes Esconder acordes muito fáceis Esconder acordes fáceis Esconder acordes intermediários
redimensionar
glossário