Cifras e Tablaturas
Homestuck

Homestuck

Doctor

Cifras Cancelar Versão de Impressão
cifras

Homestuck - Doctor

fixar na tela  
Exibindo: vídeo-aula ver clipes redimensionar

Tom:

E

ver outros tons
  
     Q.     Q    E  Q       E  Q    E  Q    Q       Q.     Q    E  Q       E  Q    E  Q    Q      
E||----------------------|-----------------------|----------------------|------------------0----| 
B||--1------0----1--3----|--L--0----1--3----0----|--1------0----1--3----|--L--0----1--3---------| 
G||----------------------|-----------------------|----------------------|-----------------------| 
D||----------------------|-----------------------|----------------------|-----------------------| 
A||--0-------------------|--0--------------------|--0-------------------|--0--------------------| 
E||----------------------|------------------3----|----------------------|------------------3----| 


                                  AH        NH                                        NH        NH             
     Q    E  Q    E  Q       E    Q.        Q    E  S S    Q    E  Q    E  Q     E    Q    E    Q    E  E      
E||--3-------5-------0----|--L-------------------3------|--3-------5-------7--|--L-------------------7------|| 
B||-----------------------|------1/13----12---------|---------------------|-----------------------------|| 
G||-------2-------2-------|-----------------------------|-------2-------2-----|------5-------7---------*|| 
D||-----------------------|-----------------------------|---------------------|----------------------------*|| 
A||-----------------------|-----------------------------|---------------------|-----------------------------|| 
D||--1--------------------|--1-------------------1--0-1-|--3------------------|--3---------3---------3--0---|| 


     E  E  E  E  E  E  E  E     E  E  E  E  E  E  E  E     E  E  E  E  E  E  E  E     E  E  E  E  E  E  E  E   
E||--3--0-----5--0-----8--0--|-----8--7--5--0-----------|--------7--3--------------|--------------------3----| 
B||--------------------------|-----------------1-----1--|-----3--------3-----0-----|-----------------------3-| 
G||--------2-----------------|--------------------2-----|-----------------5-----2--|--0-----------0----------| 
D||-----------------7--------|--7-----------------------|--5-----------------------|-----------0-----0-------| 
A||--------------------------|--------------------------|--------------------------|-----2--3----------------| 
D||--1-----------------------|-----------------0-----2--|--3-----------------3-----|--L--------3-------------| 


     E  E  E  E  E  E  E  E     E  E  E  E  E  E  E  E     E  E  E  E  E  E  E  E     E  E  E  E  E  E E S S   
E||--3--0-----5--0-----8--0--|-----8--7--5--0-----------|--------3-----------------|-----------0--0----------| 
B||--------------------------|-----------------1-----1--|-----3-----3--3--1--0-----|-----0-----------0---0---| 
G||--------2-----------------|--------------------2-----|-----------------------0--|--1----------------1---1-| 
D||-----------------7--------|--7-----------------------|--5-----------------------|--------2-----2----------| 
A||--------------------------|--------------------------|--------------------------|-------------------2-----| 
D||--1-----------------------|-----------------0-----2--|--3-----------L--------3--|--0-----0----------------| 


     E  E  Q    E  E  E  E     E  Q    E  E  E  E  S S    E  E  E  Q    E  E  E     E  E  E  E  E  E  E  E    
E||-------------0--0--0-----|--------------------------|-------------------------|--------------------3-----| 
B||----------------------3--|--L--1----0-----1-----0-1-|--3-----1--0----0--1--0--|--0--0--1--0--------------| 
G||--2----------------------|--------------------------|-------------------------|--------------0--------0--| 
D||-------------------------|--------------------------|-------------------------|-----------------0--------| 
A||-------------------------|--------------------------|-------------------------|-----------------2--------| 
D||--1--1-------------1-----|-------------1-----1--2---|--3--3-------------3-----|--L--------3-----------0--| 


     E  E  E  Q.     E  E     Q    E  E  E  E  E  E     E  E  E  E  E  E  E  E     E  E  E  E  E  E  E  E    
E||------------------------|-------------------3-----|-----0--------------------|-----------0--0-----------| 
B||--------0--1------1--0--|--1----1--0-----------3--|--3-----3--1--0-----------|-----0-----------0-----0--| 
G||--2--2------------------|-------------2--0--------|-----------------2--0-----|--1-----------------1-----| 
D||------------------------|-------------------------|-----------------------2--|--------2-----2-----------| 
A||------------------------|-------------------------|--------------------------|--------------------2-----| 
D||--1--1------------1-----|-------------1-----1-----|--3-----------------3-----|--4-----0-----------------| 


     Q.     Q    E  Q       E  Q    E  Q    Q       Q.     Q    E  Q       E  Q    E  Q    Q      
E||----------------------|-----------------------|----------------------|------------------0----| 
B||--1------0----1--3----|--L--0----1--3----0----|--1------0----1--3----|--L--0----1--3---------| 
G||----------------------|-----------------------|----------------------|-----------------------| 
D||----------------------|-----------------------|----------------------|-----------------------| 
A||--0-------------------|--0--------------------|--0-------------------|--0--------------------| 
D||----------------------|------------------3----|----------------------|------------------3----| 


                                  AH        NH                                          NH        NH           
     Q    E  Q    E  Q       E    Q.        Q    E  S S    Q    E  Q    E  Q       E    Q    E    Q    E  E    
E||--3-------5-------0----|--L-------------------3------|--3-------5-------7----|--L-------------------7-----| 
B||-----------------------|------1/13----12---------|-----------------------|----------------------------| 
G||-------2-------2-------|-----------------------------|-------2-------2-------|------5-------7---------| 
D||-----------------------|-----------------------------|-----------------------|----------------------------| 
A||-----------------------|-----------------------------|-----------------------|----------------------------| 
D||--1--------------------|--1-------------------1--0-1-|--3--------------------|--3---------3---------3--0--| 


     E  E  E  E  E  E  E  E     E  E  E  E  E  E  E  S S    E  E  E  E  E  E  E  E     E  E  E  E  E  E E  E 
E||--5-----------------------|---------------------------|--------------------------|-------------------3----| 
B||--------------5--5--5--3--|--L--1-----0-----1-----0-1-|--3-----1--0-----0--1--0--|--L--0--1--0------------| 
G||--2--------2--------------|---------------------------|--------------------------|--------------0-------0-| 
D||-----2-----------------2--|--------------2------------|-----0--------0-----------|-----------------0------| 
A||--------0--------0--------|--0-----2--------3--0--3---|--L--------------0--------|--------3---------------| 
D||--------------------------|---------------------------|--------------------------|--3-----------3---------| 


     E  E  E  E  E  E  E  E     E  E  E  E  E  E  E  E     E  E  E  E  E  E  E  E    E  E  E  E  E  E  E S S 
E||--------------------------|--------------------3-----|-----0--------------------|----------0--0-----------| 
B||--------0--1--------1--0--|--1-----1--0-----------3--|--3-----3--1--0-----------|----0-----------0----0---| 
G||--2--2--------------------|--------------2--0--------|-----------------2--0-----|-1-----------------1-----| 
D||--------------2-----------|--------------------------|-----------0-----------2--|-------2-----2-----------| 
A||--0--------------0--3-----|--L--3-----------3--------|--------------------------|-------------------------| 
D||--------------------------|--------------------------|--3-----------------------|-4-----0-----------4---4-| 

     Q    H.              
E||--------------------|| 
B||--------------------|| 
G||--2-----------------|| 
D||--------------------|| 
A||--------------------|| 
D||--L-----------------|| 

Duration Legend 
--------------- 
W - whole 
H - half 
Q - quarter 
E - 8th 
S - 16th 
. - note dotted 


Tablature Legend 
---------------- 
L - tied note 
NH - natural harmonic 
AH - artificial harmonic 
  

top 5 | homestuck
top
Outras músicas do artista letras do(a) Homestuck
Top cifras »Top artistas »
Petaxxon Comunicação Online
Cifras.com.br - Melhor e mais completo site de cifras e tablaturas do Brasil
Mais de 1 milhão de acordes de músicas cadastradas desde 2003
As informações contidas no nosso site são colaborações de seus usuários e podem conter erros, sendo assim, não nos responsabilizamos sobre nenhuma destas.
close
menos
mais
close
Cor dos acordes:

Cor da letra:

 

save
close
close
 
redimensionar