Cifras e Tablaturas
Homestuck

Homestuck

Explore

Cifras Cancelar Versão de Impressão
cifras

Homestuck - Explore

fixar na tela  
Exibindo: vídeo-aula ver clipes redimensionar

Tom:

D

ver outros tons
  
Tuning D A D G B e (Dropped D)  


     E  E  E  E  E  E  E  E     E  E  E  E  E  E  E  E     E  E  E  E  E  E  E  E     E  E  E  E  E  E  E  E  
E||--------------0-----------|--------------0-----------|--------------0-----------|--------------0----------| 
B||-----------1-----1--------|-----------1-----1--------|-----------0-----0--------|-----------0-----0-------| 
G||--------2-----------2-----|--------2-----------2-----|--------0-----------0-----|--------0-----------0----| 
D||-----2-----------------2--|-----2-----------------2--|-----2-----------------2--|-----2-----------------2-| 
A||--0-----------------------|--L-----------------------|--------------------------|-------------------------| 
D||--------------------------|--------------------------|--2-----------------------|--L----------------------| 


     E  E  E  E  E  E  E  E     E  E  E  E  E  E  E  E     E  E  E  E  E  E  E  E     E  E  E  E  E  E  E  E  
E||--------------0-----------|--------------0-----------|--------------------------|-------------------------| 
B||-----------1-----1--------|-----------1-----1--------|-----------0--3--0--------|-----------0--3--0-------| 
G||--------0-----------0-----|--------0-----------0-----|--------0-----------0-----|--------0-----------0----| 
D||-----2-----------------2--|-----2-----------------2--|-----0-----------------0--|-----0-----------------0-| 
A||--3-----------------------|--L-----------------------|--------------------------|-------------------------| 
D||--------------------------|--------------------------|--5-----------------------|--L----------------------| 


     E  E  E  E  E  E  E  E     E  E  E  E  E  E  E  E     E  E  E  E  E  E  E  E     E  E  E  E  E  E  E  E  
E||--------------------------|--------------------------|--------------------------|-------------------------| 
B||--------------3-----------|--------------3-----------|--------------3-----------|--------------3----------| 
G||--------0--3-----3--0-----|--------0--3-----3--0-----|-----------2-----2--------|-----------2-----2-------| 
D||-----0-----------------0--|-----0-----------------0--|-----0--3-----------3--0--|-----0--3-----------3--0-| 
A||--------------------------|--------------------------|--------------------------|-------------------------| 
D||--5-----------------------|--L-----------------------|--0-----------------------|--L----------------------| 


     E  E  E  E  E  E  E  E     E  E  E  E  E  E  E  E     E  E  E  E  E  E  E  E     E  E  E  E  E  E  E  E  
E||--------------------------|--------------------------|--------------------------|-------------------------| 
B||--------------3-----------|--------------3-----------|-----------0--3--0--------|-----------0--3--0-------| 
G||-----------3-----3--------|-----------3-----3--------|--------0-----------0-----|--------0-----------0----| 
D||-----0--3-----------3--0--|-----0--3-----------3--0--|-----0-----------------0--|-----0-----------------0-| 
A||--1-----------------------|--L-----------------------|--------------------------|-------------------------| 
D||--------------------------|--------------------------|--5-----------------------|--L----------------------| 


     E  E  E  E  E  E  E  E     E  E  E  E  E  E  E  E     E  E  E  E  E  E  E  E     E  E  E  E  E  E  E  E  
E||--5-----------------------|--5-----------8-----------|--7-----------5-----------|--3-----------0----------| 
B||--------------5-----------|--------------5-----------|-----------0--5-----------|-----------0-----0-------| 
G||*----------5-----5--------|-----------5-----5--------|--------0--------4--0-----|--------0-----------0----| 
D||*-------7-----------7-----|--------7-----------7-----|-----2-----------------2--|-----2-----------------2-| 
A||-----7-----------------7--|-----7-----------------7--|--------------------------|-------------------------| 
D||--7-----------------------|--------------------------|--2-----------------------|-------------------------| 


                                                                        |-----3----|      
     E  E  E  E  E  E  E  E     E  E  E   E   E   E  E  E      E  E  E  E  Q     Q    Q      
E||--8-----------3-----------|--8------------12------------|--10-----------8----10----8----| 
B||--------------5-----------|-----------------------------|------------0------------------| 
G||--------0--5-----5--0-----|--------0-------9------0-----|---------0-----7---------------| 
D||--------------------------|-----------10------10--------|------0------------------------| 
A||--3--7-----------------7--|-----7--------------------7--|-------------------------------| 
D||--------------------------|-----------------------------|---5---------------------------| 


     E  E  E  E  E  E  E  E     E  E  E  E  E  E  E  E     E  E  E  E  E  E  E  E     E  E  E  E  E  E  E  E  
E||--7-----------------L--8--|-10-----------6-----------|--3-----------5-----6-----|--8-----------5----------| 
B||-----------0--3--0--------|--------------------------|--------------3-----------|--------------3----------| 
G||--------0-----------0-----|--------0-----7-----0-----|--------0--3-----3--0-----|-----------2-----2-------| 
D||-----0-----------------0--|-----0-----8-----8-----0--|-----0-----------------0--|-----0--3-----------3--0-| 
A||--------------------------|--------------------------|--------------------------|-------------------------| 
D||--------------------------|--5-----------------------|--------------------------|--0----------------------| 


     E  E  E  E  E  E  E  E     E  E  E  E  E  E  E  E     E  E  E  E  E  E  E  E     E  E  E  E  E  E  E  E  
E||--1-----------------5-----|--6-----------------8-----|-10-----------8-----------|--7-----------------8----| 
B||--------------3-----------|--------------------------|-------------------11-----|-----------0-----0-------| 
G||-----------2-----2--------|--------------7-----------|--------------7-----------|--------0-----7-----0----| 
D||-----0--3-----------3--0--|-----0-----8-----8-----0--|-----0-----8-----8-----0--|-----0-----------------0-| 
A||--------------------------|--------8-----------8-----|--------8-----------8-----|-------------------------| 
D||--------------------------|--8-----------------------|--------------------------|--5----------------------| 


     E  E  E  E  E  E  E  E       H        H           H        H           H        H           W             
E||--7-----------3------------||--5-----------------|--5--------8--------|--7--------5--------|--3-----------| 
B||-----------0--3--0---------||--5--------5--------|--------------------|--0-----------------|--L-----------| 
G||--------0-----------0-----*||--5-----------------|--L-----------------|--0-----------------|--L-----------| 
D||-----0-----------------0--*||--7-----------------|--L-----------------|--------------------|--------------| 
A||---------------------------||--7-----------------|--L-----------------|--7-----------------|--L-----------| 
D||---------------------------||--7-----------------|--L-----------------|--------------------|--------------| 


                                                       |-----3----|                            
     H        H           H         H            H        Q     Q    Q       H.           E  E    
E||--8-----------------|--8--------12--------|--10--------8----10----8----|--7------------L--8--| 
B||--5--------8--------|--L------------------|---0------------------------|--L------------------| 
G||--5-----------------|--L------------------|---0------------------------|--L------------------| 
D||--5-----------------|--L------------------|---0------------------------|--L------------------| 
A||--7-----------------|--L------------------|----------------------------|---------------------| 
D||--------------------|---------------------|---5------------------------|--L------------------| 


      H        H           H        Q    Q       H        H           H.           Q        H.           Q   
E||--10--------6--------|-----------5----6----|--8--------5--------|---------------5----|----------------8---| 
B||---------------------|--8------------------|--------------------|--6-----------------|--11----------------| 
G||---------------------|---------------------|--------------------|--------------------|--------------------| 
D||---8-----------------|--L------------------|--7-----------------|--L-----------------|---8----------------| 
A||---5-----------------|--L------------------|--8-----------------|--L-----------------|---8----------------| 
D||---5-----------------|--L------------------|--0-----------------|--L-----------------|---8----------------| 


      H        Q    Q       H.           Q       H        H           E  E  E  E  E  E  E  E 
E||--10--------8----6----|--7------------8----|--7--------3--------|--5-----------------------| 
B||----------------------|--0-----------------|--L-----------------|--------------5-----------| 
G||----------------------|--0-----------------|--L-----------------|-----------5-----5--------| 
D||---L------------------|--0-----------------|--L-----------------|--------7-----------7-----| 
A||---L------------------|--------------------|--------------------|-----7-----------------7--| 
D||---L------------------|--5-----------------|--L-----------------|--7-----------------------| 


     E  E  E  E  E  E  E  E     E  E  E  E  E  E  E  E     E  E  E  E  E  E  E  E     E  E  E  E  E  E  E  E 
E||--5-----------8-----------|--7-----------5-----------|--3-----------0-----------|--8-----------3----------| 
B||--------------5-----------|-----------0--5-----------|-----------0-----0--------|--------------5----------| 
G||-----------5-----5--------|--------0--------4--0-----|--------0-----------0-----|--------0--5-----5--0----| 
D||--------7-----------7-----|-----2-----------------2--|-----2-----------------2--|-------------------------| 
A||-----7-----------------7--|--------------------------|--------------------------|--3--7-----------------7-| 
D||--------------------------|--2-----------------------|--------------------------|-------------------------| 


                                             |-----3----|                                 
     E  E  E   E   E   E  E  E      E  E  E  E  Q     Q    Q       E  E  E  E  E  E  E  E    
E||--8------------12------------|--10-----------8----10----8----|--7-----------------L--8--| 
B||-----------------------------|------------0------------------|-----------0--3--0--------| 
G||--------0-------9------0-----|---------0-----7---------------|--------0-----------0-----| 
D||-----------10------10--------|------0------------------------|-----0-----------------0--| 
A||-----7--------------------7--|-------------------------------|--------------------------| 
D||-----------------------------|---5---------------------------|--------------------------| 


     E  E  E  E  E  E  E  E     E  E  E  E  E  E  E  E     E  E  E  E  E  E  E  E     E  E  E  E  E  E  E  E 
E||-10-----------6-----------|--3-----------5-----6-----|--8-----------5-----------|--1-----------------5----| 
B||--------------------------|--------------3-----------|--------------3-----------|--------------3----------| 
G||--------0-----7-----0-----|--------0--3-----3--0-----|-----------2-----2--------|-----------2-----2-------| 
D||-----0-----8-----8-----0--|-----0-----------------0--|-----0--3-----------3--0--|-----0--3-----------3--0-| 
A||--------------------------|--------------------------|--------------------------|-------------------------| 
D||--5-----------------------|--------------------------|--0-----------------------|-------------------------| 


     E  E  E  E  E  E  E  E    E  E  E  E  E  E   E  E     E  E  E  E  E  E  E  E     E  E  E  E  E  E  E  E 
E||--6-----------------8-----|-10-----------8-----------|--7-----------------8-----|--7-----------3----------| 
B||--------------------------|-------------------11-----|-----------0-----0--------|-----------0--3--0-------| 
G||--------------7-----------|--------------7-----------|--------0-----7-----0-----|--------0-----------0----| 
D||-----0-----8-----8-----0--|-----0-----8-----8-----0--|-----0-----------------0--|-----0-----------------0-| 
A||--------8-----------8-----|--------8-----------8-----|--------------------------|-------------------------| 
D||--8-----------------------|--------------------------|--5-----------------------|-------------------------| 


E||-------|| 
B||-------|| 
G||-------|| 
D||-------|| 
A||-------|| 
D||-------|| 




Duration Legend 
--------------- 
W - whole 
H - half 
Q - quarter 
E - 8th 
S - 16th 
. - note dotted 
|-n-|  - n-tuplets 


Tablature Legend 
---------------- 
L - tied note 
  

top 5 | homestuck
top
Outras músicas do artista letras do(a) Homestuck
Top cifras »Top artistas »
Petaxxon Comunicação Online
Cifras.com.br - Melhor e mais completo site de cifras e tablaturas do Brasil
Mais de 1 milhão de acordes de músicas cadastradas desde 2003
As informações contidas no nosso site são colaborações de seus usuários e podem conter erros, sendo assim, não nos responsabilizamos sobre nenhuma destas.
close
menos
mais
close
Cor dos acordes:

Cor da letra:

 

save
close
close
 
redimensionar