Cifras e Tablaturas
Hot Rollers

Hot Rollers

Wickerman Shoes

Cifras Cancelar Versão de Impressão Print

Hot Rollers - Wickerman Shoes

Tom:

  			Australia 
                  
   /\          //////// 
  //\\            || 
 //--\\           || 
//    \\ndrew's   ||abs 
 
Tabbed By Andrew Schultz  ([email protected]) 
 
Tuning: Standard 
 
Lead Intro 
 
e  --------------------------------------------- 
b  ----2---2----2---2--------------------------- 
g  --2---0---/4---4----------------------------- 
d  -------------------0------------------------- 
a  --------------------------------------------- 
E  --------------------------------------------- 
 
Rythmn Intro (Chords Muted) 
 
e  --------------------------------------------- 
b  --------------------------------------------- 
g  --------------------------------------------- 
d  --7--8--9------------------------------------ 
a  --7--8--9------------------------------------ 
E  --5--6--7------------------------------------ 
 
Verse (Chords) 
 
"Twenty Past Two.."  
 
e  --------------------------------------------- 
b  --------------------------------------------- 
g  --------7------------------------------------ 
d  --9--5--7--7--------------------------------- 
a  --9--5--5--7--------------------------------- 
E  --7--3-----5--------------------------------- 
 
Pre-Chorus (Chords) 
 
"Cause Your Alive.." 
 
e  --------------------------------------------- 
b  --------------------------------------------- 
g  --------------------------------------------- 
d  --8--7--5------------------------------------ 
a  --8--7--5------------------------------------ 
E  --6--5--3------------------------------------ 
 
Chorus (Chords) 
 
"I Don't Care If You Feel.." 
 
e  --------------------------------------------- 
b  --------------------------------------------- 
g  --7------------------------------------------ 
d  --7--7--8--5--------------------------------- 
a  --5--7--8--5--------------------------------- 
E  -----5--6--3--------------------------------- 
 
 

    	
fixar
fixar inscrever-se

enviado porenviado por: anônimo
cifra enviadaCorrigida por: sem correções
logo top cifrasComente
ico música do artistaMúsicas deste artista
ico curtiuCurtiu?
ico destaqueDestaque
Petaxxon Comunicação Online

Cifras.com.br - Melhor e mais completo site de cifras e tablaturas do Brasil Mais de 1 milhão de acordes de músicas cadastradas desde 2003
As informações contidas no nosso site são colaborações de seus usuários e podem conter erros, sendo assim, não nos responsabilizamos sobre nenhuma destas.

close
menos
mais
close
Cor dos acordes:

Cor da letra:

close
Alinhar acordes a direita Alinhar acordes a esquerda Alinhar acordes em baixo Alinhar acordes no topo
close
  Mostrar todos os acordes Esconder acordes muito fáceis Esconder acordes fáceis Esconder acordes intermediários
redimensionar
glossário