Cifras e Tablaturas
Howard Shore

Howard Shore

Concering Hobbits

Cifras Cancelar Versão de Impressão
cifras

Howard Shore - Concering Hobbits

fixar na tela  
Exibindo: vídeo-aula ver clipes redimensionar

Tom:

  
e|-----------2--5--2-----------2--5--7-----10-9--5--2---3p-2p0-----------------2--5--2--0-----------------| 
B|------3h5-----------5--3------------------------------------------------3h5-----------------3-----5--3--| 
G|--------------------------------------------------------------------------------------------------------| 
D|--------------------------------------------------------------------------------------------------------| 
A|--------------------------------------------------------------------------------------------------------| 
E|--------------------------------------------------------------------------------------------------------| 

e|---2--5--7--5--2---5p2--0-----------------2-----2--2---5h-7p-5p0-----0-------------------------------------| 
B|---------------------------3---------3h5--------------------------3--------------2-----2--3----------------| 
G|----------------------------------------------------------------------------2h4--------------4--------2----| 
D|------------------------------------------------------------------------------------------------4--------2-| 
A|-----------------------------------------------------------------------------------------------------------| 
E|-----------------------------------------------------------------------------------------------------------| 

e|--------------2--2-----5---2h-3p-2p0-----0--------------------------2-----7--9--10-9--5--2------2h-3p-2p0-| 
B|-----2---3h5--------------------------3-----2---2h-3p-2p0------3h5----------------------------------------| 
G|--2-------------------------------------------------------------------------------------------------------| 
D|----------------------------------------------------------------------------------------------------------| 
A|----------------------------------------------------------------------------------------------------------| 
E|----------------------------------------------------------------------------------------------------------| 

e|--------2------2h3--5--0-----------------2--5--2--0--------2--5--7--10-9--5--2------3p-2p0-----| 
B|---3h5--------------------3---------3h5--------------3-----------------------------------------| 
G|-----------------------------------------------------------------------------------------------| 
D|-----------------------------------------------------------------------------------------------| 
A|-----------------------------------------------------------------------------------------------| 
E|-----------------------------------------------------------------------------------------------| 

e|--------2--5--2--0--------0-----------2---5/7--5---5\2---5p2-----0--------| 
B|---3h5--------------3--------3-----------------------------------------3--| 
G|--------------------------------------------------------------------------| 
D|--------------------------------------------------------------------------| 
A|--------------------------------------------------------------------------| 
E|--------------------------------------------------------------------------| 


************************************ 

| p  Pull-off 
| h  Hammer-on 
| /  Slide up 
| \  Slide down 

************************************ 
  

top 5 | howard shore
top filmes
Outras músicas do artista letras do(a) Howard Shore
Top cifras »Top artistas »
Petaxxon Comunicação Online
Cifras.com.br - Melhor e mais completo site de cifras e tablaturas do Brasil
Mais de 1 milhão de acordes de músicas cadastradas desde 2003
As informações contidas no nosso site são colaborações de seus usuários e podem conter erros, sendo assim, não nos responsabilizamos sobre nenhuma destas.
close
menos
mais
close
Cor dos acordes:

Cor da letra:

 

save
close
close
 
redimensionar