Cifras e Tablaturas
Howard Shore

Howard Shore

The Shire

Cifras Cancelar Versão de Impressão Print

Howard Shore - The Shire

Tom:

  			
E|-----0--2--5--2--------2--5--7-10--9--5--2--3p2-0--||  
B|--3--------------5--3------------------------------||  
G|-----------------------------0---------------------||  
D|---------------------------------------------------||  
A|---------------------------------------------------||  
E|---------------------------------------------------||  

E|-----0--2--5--2-----------------2--5--7--7--5--2--0-||  
B|--3--------------5--7--5--3-------------------------||  
G|-----------------------------------------0----------||  
D|----------------------------------------------------||  
A|----------------------------------------------------||  
E|----------------------------------------------------||  

E|---------------------------------------------------------------------------------------------||  
B|----------------8--10--11--10--8--6--8--10--8--6--5--3---1---1-1-3--8-----10--11--10---11--13||  
G|--4--2--2-2--4-------------------------------------------------------------------------------||  
D|---------------------------------------------------------------------------------------------||  
A|---------------------------------------------------------------------------------------------||  
E|---------------------------------------------------------------------------------------------||  

e|-----------------------------------------------------------||  
B|--13----15---13---13--13--15----3--1--1-1--3---------------||  
G|-----------------------------------------------------------||  
D|-----------------------------------------------------------||  
A|-----------------------------------------------------------||  
E|-----------------------------------------------------------||  

    	
fixar
fixar inscrever-se

enviado porenviado por: hola™
cifra enviadaCorrigida por: ThePopoCoon
logo top cifrasComente
ico música do artistaMúsicas deste artista
ico curtiuCurtiu?
ico destaqueDestaque
Petaxxon Comunicação Online

Cifras.com.br - Melhor e mais completo site de cifras e tablaturas do Brasil Mais de 1 milhão de acordes de músicas cadastradas desde 2003
As informações contidas no nosso site são colaborações de seus usuários e podem conter erros, sendo assim, não nos responsabilizamos sobre nenhuma destas.

close
menos
mais
close
Cor dos acordes:

Cor da letra:

close
Alinhar acordes a direita Alinhar acordes a esquerda Alinhar acordes em baixo Alinhar acordes no topo
close
  Mostrar todos os acordes Esconder acordes muito fáceis Esconder acordes fáceis Esconder acordes intermediários
redimensionar
glossário