Cifras e Tablaturas
Hoyt Axton

Hoyt Axton

Five Hundred Miles

Cifras Cancelar Versão de Impressão Print

Hoyt Axton - Five Hundred Miles

Tom: C

  			 

Intro:

    C                                    Em 
e|------------------------|-------------------------| 
B|----------1----------0-|---------0----------0-----| 
G|-------0---------0----|------0----------0---------| 
D|----2----------2------|----2----------2-----------| 
A|-3----------3---------|-2----------2--------------| 
E|-----------------------|--------------------------| 

    Am                                 G 
e|-----------------------|--------------------------| 
B|----------1----------1-|--------------------------| 
G|------2-----------2---|---------0-----------0-----| 
D|----2----------2------|------0-----------0--------| 
A|-0----------0--------|----2-----------2-----------| 
E|-----------------------|-3----------3-------------| 

   C                                       C 
e|-------------------------|---------------------------| 
B|----------1------------1-|----------1------------1---| 
G|-------0----------0----|-------0-----------0---------| 
D|----2----------2--------|----2-----------2-----------| 
A|-3---------3------------|-3----------3---------------| 
E|-------------------------|---------------------------| 

Verse 

   C                                       C 
e|-------------------------|---------------------------| 
B|----------1------------1-|----------1------------1---| 
G|-------0----------0----|-------0-----------0---------| 
D|----2----------2--------|----2-----------2-----------| 
A|-3---------3------------|-3----------3---------------| 
E|-------------------------|---------------------------| 

    C                                      Am 
e|-------------------------|---------------------------| 
B|----------1------------1-|----------1------------1---| 
G|-------0----------0----|-------2-----------2---------| 
D|----2----------2--------|----2-----------2-----------| 
A|-3---------3------------|-0----------0---------------| 
E|-------------------------|---------------------------| 

    Dm                                  F 
e|----------0----------0-|----------1------------1----| 
B|----1--3-------1--3----|----1--3--------1--3--------| 
G|-2----------2----------|-2-----------2--------------| 
D|------------------------|---------------------------| 
A|------------------------|---------------------------| 
E|------------------------|---------------------------| 

    Dm                                  G 
e|----------0----------0-|---------------------------| 
B|----1--3-------1--3----|---------------------------| 
G|-2----------2----------|----------0----------0-----| 
D|------------------------|-------0----------0-------| 
A|------------------------|----2-----------2---------| 
E|------------------------|-3-----------3------------| 

    C                                       C 
e|-------------------------|---------------------------| 
B|----------1------------1-|----------1------------1---| 
G|-------0----------0----|-------0-----------0---------| 
D|----2----------2--------|----2-----------2-----------| 
A|-3---------3------------|-3----------3---------------| 
E|-------------------------|---------------------------| 

    C                                      Am 
e|-------------------------|---------------------------| 
B|----------1------------1-|----------1------------1---| 
G|-------0----------0----|-------2-------------2-------| 
D|----2----------2--------|----2-----------2-----------| 
A|-3---------3------------|-0----------0---------------| 
E|-------------------------|---------------------------| 

    Dm                                  F 
e|----------0----------0-|----------1------------1----| 
B|----1--3-------1--3----|----1--3--------1--3--------| 
G|-2----------2----------|-2-----------2--------------| 
D|------------------------|---------------------------| 
A|------------------------|---------------------------| 
E|------------------------|---------------------------| 

    Dm                                  G 
e|----------0----------0-|---------------------------| 
B|----1--3-------1--3----|---------------------------| 
G|-2----------2----------|----------0----------0-----| 
D|------------------------|-------0----------0-------| 
A|------------------------|----2-----------2---------| 
E|------------------------|-3-----------3------------| 

   C                                       C 
e|-------------------------|---------------------------| 
B|----------1------------1-|----------1------------1---| 
G|-------0----------0----|-------0-----------0---------| 
D|----2----------2--------|----2-----------2-----------| 
A|-3---------3------------|-3----------3---------------| 
E|-------------------------|---------------------------| 

Instrumental 

    C                                    Em 
e|------------------------|-------------------------| 
B|----------1----------0-|---------0----------0-----| 
G|-------0---------0----|------0----------0---------| 
D|----2----------2------|----2----------2-----------| 
A|-3----------3---------|-2----------2--------------| 
E|-----------------------|--------------------------| 

    Am                                 G 
e|-----------------------|--------------------------| 
B|----------1----------1-|--------------------------| 
G|------2-----------2---|---------0-----------0-----| 
D|----2----------2------|------0-----------0--------| 
A|-0----------0--------|----2-----------2-----------| 
E|-----------------------|-3----------3-------------| 

Outro 

(soft strumming, holding last note) 
    Dm                                  G 
e|---------------------0-|----------------------------| 
B|---------------1--3----|----------------------------| 
G|------------2----------|----------------------0-----| 
D|------------------------|-------------------0-------| 
A|------------------------|----------------2----------| 
E|------------------------|--------------3------------| 

   C                                       C 
e|-------------------------|---------------------------| 
B|----------1------------1-|----------1------------1---| 
G|-------0----------0----|-------0-----------0---------| 
D|----2----------2--------|----2-----------2-----------| 
A|-3---------3------------|-3----------3---------------| 
E|-------------------------|---------------------------| 


e|----------------0--3--0------------0------| 
B|----------1---------------3--1------------| 
G|-------0----------------------------------| 
D|----2-------------------------------------| 
A|-3----------------------------------------| 
E|------------------------------------------| 
    	
fixar
fixar inscrever-se

enviado porenviado por: ubirbomfim
cifra enviadaCorrigida por: sem correções
logo top cifrasComente
ico música do artistaMúsicas deste artista
ico curtiuCurtiu?
ico destaqueDestaque
Petaxxon Comunicação Online

Cifras.com.br - Melhor e mais completo site de cifras e tablaturas do Brasil Mais de 1 milhão de acordes de músicas cadastradas desde 2003
As informações contidas no nosso site são colaborações de seus usuários e podem conter erros, sendo assim, não nos responsabilizamos sobre nenhuma destas.

close
menos
mais
close
Cor dos acordes:

Cor da letra:

close
Alinhar acordes a direita Alinhar acordes a esquerda Alinhar acordes em baixo Alinhar acordes no topo
close
  Mostrar todos os acordes Esconder acordes muito fáceis Esconder acordes fáceis Esconder acordes intermediários
redimensionar
glossário