Cifras e Tablaturas
I Prevail

I Prevail

Lifelines

Cifras Cancelar Versão de Impressão
cifras

I Prevail - Lifelines

fixar na tela  
Exibindo: vídeo-aula ver clipes redimensionar
  
Intro 
(Electric guitar is out for first half) 
B |----------------------------------------------------------------| 
F#|----------------------------------------------------------------| 
D |-11--11-11-11--11--11--11--11--11---14--14--14--14--14--14--14--| 
A |-x---x--x--x---x---x---x---x---x----x---x---x---x---x---x---x---| 
E |-9---9--9--9---9---9---9---9---9----12--12--12--12--12--12--12--| 
A |----------------------------------------------------------------| 

B |-----------------------------------------------| 
F#|-----------------------------------------------| 
D |-7---7---7--7---7--7---7---7-7-----7--9--9--9--| 
A |-x---x---x--x---x--x---x---x-x-----x--x--x--x--| 
E |-5---5---5--5---5--5---5---5-5-5-5-5--7--7--7--| 
A |-0---0---0--0-0-0--0-0-0---0-0-0-0-0-----------| 

B |----------------------------------------------------------------| 
F#|----------------------------------------------------------------| 
D |-11--11-11-11--11--11--11--11--11---14--14--14--14--14--14--14--| 
A |-x---x--x--x---x---x---x---x---x----x---x---x---x---x---x---x---| 
E |-9---9--9--9---9---9---9---9---9----12--12--12--12--12--12--12--| 
A |----------------------------------------------------------------| 

B |-----------------------------------------------| 
F#|-----------------------------------------------| 
D |-7---7---7--7---7--7---7---7-7-----7--9--9--9--| 
A |-x---x---x--x---x--x---x---x-x-----x--x--x--x--| 
E |-5---5---5--5---5--5---5---5-5-5-5-5--7--7--7--| 
A |-0---0---0--0-0-0--0-0-0---0-0-0-0-0-----------| 

verse 1 
(Clean) 
B |-----9--------------------9~------|-----------------------7-----------------| 
F#|------------10~-------10----------|-----10------10~----------9~-----9~------| 
D |-11-----11--------11--------------|-11------11--------11----------------9~--| 
A |----------------------------------|-----------------------------------------| 
E |----------------------------------|-----------------------------------------| 
A |----------------------------------|-----------------------------------------| 

B |-----9--------------------9~------|-----------------------7-----------------| 
F#|------------10~-------10----------|-----10------10~----------9~-----9~------| 
D |-11-----11--------11--------------|-11------11--------11----------------9~--| 
A |----------------------------------|-----------------------------------------| 
E |----------------------------------|-----------------------------------------| 
A |----------------------------------|-----------------------------------------| 

Chorus 
(Dirty) 
B |----------------------------------------------------------------| 
F#|----------------------------------------------------------------| 
D |-11--11-11-11--11--11--11--11--11---14--14--14--14--14--14--14--| 
A |-x---x--x--x---x---x---x---x---x----x---x---x---x---x---x---x---| 
E |-9---9--9--9---9---9---9---9---9----12--12--12--12--12--12--12--| 
A |----------------------------------------------------------------| 

B |-----------------------------------------------| 
F#|-----------------------------------------------| 
D |-7---7---7--7---7--7---7---7-7-----7--9--9--9--| 
A |-x---x---x--x---x--x---x---x-x-----x--x--x--x--| 
E |-5---5---5--5---5--5---5---5-5-5-5-5--7--7--7--| 
A |-0---0---0--0-0-0--0-0-0---0-0-0-0-0-----------| 

B |----------------------------------------------------------------| 
F#|----------------------------------------------------------------| 
D |-11--11-11-11--11--11--11--11--11---14--14--14--14--14--14--14--| 
A |-x---x--x--x---x---x---x---x---x----x---x---x---x---x---x---x---| 
E |-9---9--9--9---9---9---9---9---9----12--12--12--12--12--12--12--| 
A |----------------------------------------------------------------| 

B |-----------------------------------------------| 
F#|-----------------------------------------------| 
D |-7---7---7--7---7--7---7---7-7-----7--9--9--9--| 
A |-x---x---x--x---x--x---x---x-x-----x--x--x--x--| 
E |-5---5---5--5---5--5---5---5-5-5-5-5--7--7--7--| 
A |-0---0---0--0-0-0--0-0-0---0-0-0-0-0-----------| 

B |----------------------------------------------------------------| 
F#|----------------------------------------------------------------| 
D |-11--11-11-11--11--11--11--11--11---14--14--14--14--14--14--14--| 
A |-x---x--x--x---x---x---x---x---x----x---x---x---x---x---x---x---| 
E |-9---9--9--9---9---9---9---9---9----12--12--12--12--12--12--12--| 
A |----------------------------------------------------------------| 

B |-----------------------------------------------| 
F#|-----------------------------------------------| 
D |-7---7---7--7---7--7---7---7-7-----7--9--9--9--| 
A |-x---x---x--x---x--x---x---x-x-----x--x--x--x--| 
E |-5---5---5--5---5--5---5---5-5-5-5-5--7--7--7--| 
A |-0---0---0--0-0-0--0-0-0---0-0-0-0-0-----------| 

B |----------------------------------------------------------------| 
F#|----------------------------------------------------------------| 
D |-11--11-11-11--11--11--11--11--11---14--14--14--14--14--14--14--| 
A |-x---x--x--x---x---x---x---x---x----x---x---x---x---x---x---x---| 
E |-9---9--9--9---9---9---9---9---9----12--12--12--12--12--12--12--| 
A |----------------------------------------------------------------| 

B |-----------------------------------------------| 
F#|-----------------------------------------------| 
D |-7---7---7--7---7--7---7---7-7-----7--9--9--9--| 
A |-x---x---x--x---x--x---x---x-x-----x--x--x--x--| 
E |-5---5---5--5---5--5---5---5-5-5-5-5--7--7--7--| 
A |-0---0---0--0-0-0--0-0-0---0-0-0-0-0-----------| 

verse 2 
  PM 
B |-------------------------------|----------------------------------| 
F#|-------------------------------|----------------------------------| 
D |-------------------------------|----------------------------------| 
A |-------------------------------|----------------------------------| 
E |-4--4---4--4---4--4---4-4-4-=--|-4--4-4-4--4--4---4-4-4-4--4------| 
A |-4--4---4--4---4--4---4-4-4-=--|-4--4-4-4--4--4---4-4-4-4--4-4-=--| 

  PM 
B |-------------------------------|----------------------------------| 
F#|-------------------------------|----------------------------------| 
D |-------------------------------|----------------------------------| 
A |-------------------------------|----------------------------------| 
E |-4--4---4--4---4--4---4-4-4-=--|-4--4-4-4--4--4---4-4-4-4--4------| 
A |-4--4---4--4---4--4---4-4-4-=--|-4--4-4-4--4--4---4-4-4-4--4-4-=--| 

  PM 
B |-------------------------------|----------------------------------| 
F#|-------------------------------|----------------------------------| 
D |-------------------------------|----------------------------------| 
A |-------------------------------|----------------------------------| 
E |-4--4---4--4---4--4---4-4-4-=--|-4--4-4-4--4--4---4-4-4-4--4------| 
A |-4--4---4--4---4--4---4-4-4-=--|-4--4-4-4--4--4---4-4-4-4--4-4-=--| 

  PM 
B |-------------------------------|----------------------------------| 
F#|-------------------------------|----------------------------------| 
D |-------------------------------|----------------------------------| 
A |-------------------------------|----------------------------------| 
E |-4--4---4--4---4--4---4-4-4-=--|-4--4-4-4--4--4---4-4-4-4--4------| 
A |-4--4---4--4---4--4---4-4-4-=--|-4--4-4-4--4--4---4-4-4-4--4-4-=--| 

Chorus 
B |----------------------------------------------------------------| 
F#|----------------------------------------------------------------| 
D |-11--11-11-11--11--11--11--11--11---14--14--14--14--14--14--14--| 
A |-x---x--x--x---x---x---x---x---x----x---x---x---x---x---x---x---| 
E |-9---9--9--9---9---9---9---9---9----12--12--12--12--12--12--12--| 
A |----------------------------------------------------------------| 

B |-----------------------------------------------| 
F#|-----------------------------------------------| 
D |-7---7---7--7---7--7---7---7-7-----7--9--9--9--| 
A |-x---x---x--x---x--x---x---x-x-----x--x--x--x--| 
E |-5---5---5--5---5--5---5---5-5-5-5-5--7--7--7--| 
A |-0---0---0--0-0-0--0-0-0---0-0-0-0-0-----------| 

B |----------------------------------------------------------------| 
F#|----------------------------------------------------------------| 
D |-11--11-11-11--11--11--11--11--11---14--14--14--14--14--14--14--| 
A |-x---x--x--x---x---x---x---x---x----x---x---x---x---x---x---x---| 
E |-9---9--9--9---9---9---9---9---9----12--12--12--12--12--12--12--| 
A |----------------------------------------------------------------| 

B |-----------------------------------------------| 
F#|-----------------------------------------------| 
D |-7---7---7--7---7--7---7---7-7-----7--9--9--9--| 
A |-x---x---x--x---x--x---x---x-x-----x--x--x--x--| 
E |-5---5---5--5---5--5---5---5-5-5-5-5--7--7--7--| 
A |-0---0---0--0-0-0--0-0-0---0-0-0-0-0-----------| 

B |----------------------------------------------------------------| 
F#|----------------------------------------------------------------| 
D |-11--11-11-11--11--11--11--11--11---14--14--14--14--14--14--14--| 
A |-x---x--x--x---x---x---x---x---x----x---x---x---x---x---x---x---| 
E |-9---9--9--9---9---9---9---9---9----12--12--12--12--12--12--12--| 
A |----------------------------------------------------------------| 

B |-----------------------------------------------| 
F#|-----------------------------------------------| 
D |-7---7---7--7---7--7---7---7-7-----7--9--9--9--| 
A |-x---x---x--x---x--x---x---x-x-----x--x--x--x--| 
E |-5---5---5--5---5--5---5---5-5-5-5-5--7--7--7--| 
A |-0---0---0--0-0-0--0-0-0---0-0-0-0-0-----------| 

B |----------------------------------------------------------------| 
F#|----------------------------------------------------------------| 
D |-11--11-11-11--11--11--11--11--11---14--14--14--14--14--14--14--| 
A |-x---x--x--x---x---x---x---x---x----x---x---x---x---x---x---x---| 
E |-9---9--9--9---9---9---9---9---9----12--12--12--12--12--12--12--| 
A |----------------------------------------------------------------| 

B |-----------------------------------------------| 
F#|-----------------------------------------------| 
D |-7---7---7--7---7--7---7---7-7-----7--9--9--9--| 
A |-x---x---x--x---x--x---x---x-x-----x--x--x--x--| 
E |-5---5---5--5---5--5---5---5-5-5-5-5--7--7--7--| 
A |-0---0---0--0-0-0--0-0-0---0-0-0-0-0-----------| 

Instrumental 
B |-----------------------------------------|----------------------------------------| 
F#|-----------------------------------------|----------------------------------------| 
D |-----------------------------------------|----------------------------------------| 
A |-4b5---4-------------4b5---4-------------|--------------------4b5-----------------| 
E |-----------(3)(3)(3)-----------(3)(3)(3)-|(3)-4--2-4---(3)(3)-----------(3)(3)(3)-| 
A |-----4---4---------------4---4-----------|----4--2-4-4------------4-2-4-----------| 

B |-----------------------------------------|----------------------------------------| 
F#|-----------------------------------------|----------------------------------------| 
D |-----------------------------------------|----------------------------------------| 
A |-4b5---4-------------4b5---4-------------|--------------------4b5-----------------| 
E |-----------(3)(3)(3)-----------(3)(3)(3)-|(3)-4--2-4---(3)(3)-----------(3)(3)(3)-| 
A |-----4---4---------------4---4-----------|----4--2-4-4------------4-2-4-----------| 

Bridge 
B |-----------------------------------------|------------------------------------| 
F#|-----------------------------------------|------------------------------------| 
D |-----------------------------------------|------------------------------------| 
A |-4b5-4-2-4-----------4b5---4-------------|--------------------4b5-------------| 
E |-----4-2-4-(3)(3)(3)-----------(3)(3)(3)-|(3)-4--2-4---(3)(3)-----4-2-4/9-9-9-| 
A |-----4-2-4---------------4---4-----------|----4--2-4-4------------4-2-4/9-9-9-| 

B |-----------------------------------------|------------------------------------| 
F#|-----------------------------------------|------------------------------------| 
D |-----------------------------------------|------------------------------------| 
A |-4b5-4-2-4-----------4b5---4-------------|--------------------4b5-------------| 
E |-----4-2-4-(3)(3)(3)-----------(3)(3)(3)-|(3)-4--2-4---(3)(3)-----4-2-4/9-9-9-| 
A |-----4-2-4---------------4---4-----------|----4--2-4-4------------4-2-4/9-9-9-| 
                              /start bending up 
B |-------------------------------------------------| 
F#|-7--7--7--7--7--7--7--7--7--7--7--7--7--7--7--7--| 
D |-x--x--x--x--x--x--x--x--x--x--x--x--x--x--x--x--| 
A |-4--4--4--4--4--4--4--4--4--4--4--4--4--4--4--4--| 
E |-------------------------------------------------| 
A |-------------------------------------------------| 

B |-----------------------------------------|---------| 
F#|-7--7--7--7--7--7--7--7---7--7---10--10--|-12--12--| 
D |-x--x--x--x--x--x--x--x---x--x---x---x---|-x---x---| 
A |-4--4--4--4--4--4--4--4---4--4---7---7---|-9---9---| 
E |-----------------------------------------|---------| 
A |-----------------------------------------|---------| 

Chorus 
Cut up into pieces, looking for a reason 
who's gonna be there to make me whole? 
I can stop the bleeding... 

B |----------------------------------------------------------------| 
F#|----------------------------------------------------------------| 
D |-11--11-11-11--11--11--11--11--11---14--14--14--14--14--14--14--| 
A |-x---x--x--x---x---x---x---x---x----x---x---x---x---x---x---x---| 
E |-9---9--9--9---9---9---9---9---9----12--12--12--12--12--12--12--| 
A |----------------------------------------------------------------| 

B |-----------------------------------------------| 
F#|-----------------------------------------------| 
D |-7---7---7--7---7--7---7---7-7-----7--9--9--9--| 
A |-x---x---x--x---x--x---x---x-x-----x--x--x--x--| 
E |-5---5---5--5---5--5---5---5-5-5-5-5--7--7--7--| 
A |-0---0---0--0-0-0--0-0-0---0-0-0-0-0-----------| 

B |----------------------------------------------------------------| 
F#|----------------------------------------------------------------| 
D |-11--11-11-11--11--11--11--11--11---14--14--14--14--14--14--14--| 
A |-x---x--x--x---x---x---x---x---x----x---x---x---x---x---x---x---| 
E |-9---9--9--9---9---9---9---9---9----12--12--12--12--12--12--12--| 
A |----------------------------------------------------------------| 

B |-----------------------------------------------| 
F#|-----------------------------------------------| 
D |-7---7---7--7---7--7---7---7-7-----7--9--9--9--| 
A |-x---x---x--x---x--x---x---x-x-----x--x--x--x--| 
E |-5---5---5--5---5--5---5---5-5-5-5-5--7--7--7--| 
A |-0---0---0--0-0-0--0-0-0---0-0-0-0-0-----------| 

B |----------------------------------------------------------------| 
F#|----------------------------------------------------------------| 
D |-11--11-11-11--11--11--11--11--11---14--14--14--14--14--14--14--| 
A |-x---x--x--x---x---x---x---x---x----x---x---x---x---x---x---x---| 
E |-9---9--9--9---9---9---9---9---9----12--12--12--12--12--12--12--| 
A |----------------------------------------------------------------| 

B |-----------------------------------------------| 
F#|-----------------------------------------------| 
D |-7---7---7--7---7--7---7---7-7-----7--9--9--9--| 
A |-x---x---x--x---x--x---x---x-x-----x--x--x--x--| 
E |-5---5---5--5---5--5---5---5-5-5-5-5--7--7--7--| 
A |-0---0---0--0-0-0--0-0-0---0-0-0-0-0-----------| 

Outro 
B |----------------------------------------------------------------| 
F#|----------------------------------------------------------------| 
D |-11--11-11-11--11--11--11--11--11---14--14--14--14--14--14--14--| 
A |-x---x--x--x---x---x---x---x---x----x---x---x---x---x---x---x---| 
E |-9---9--9--9---9---9---9---9---9----12--12--12--12--12--12--12--| 
A |----------------------------------------------------------------| 

B |--------------------------------------------------| 
F#|--------------------------10-10-10-10-9--9--9--9--| 
D |-7---7---7--7---7--7---7--x--x--x--x--x--x--x--x--| 
A |-x---x---x--x---x--x---x--7--7--7--7--6--6--6--6--| 
E |-5---5---5--5---5--5---5--------------------------| 
A |-0---0---0--0-0-0--0-0-0--------------------------| 

B |----------------------------------------------------------------| 
F#|----------------------------------------------------------------| 
D |-11--11-11-11--11--11--11--11--11---14--14--14--14--14--14--14--| 
A |-x---x--x--x---x---x---x---x---x----x---x---x---x---x---x---x---| 
E |-9---9--9--9---9---9---9---9---9----12--12--12--12--12--12--12--| 
A |----------------------------------------------------------------| 

B |-----------------------------------------------| 
F#|-----------------------------------------------| 
D |-7---7---7--7---7--7---7---7-7-----7--9--9--9--| 
A |-x---x---x--x---x--x---x---x-x-----x--x--x--x--| 
E |-5---5---5--5---5--5---5---5-5-5-5-5--7--7--7--| 
A |-0---0---0--0-0-0--0-0-0---0-0-0-0-0-----------| 

B |-----------------------| 
F#|-----------------------| 
D |-11----------11-11-11--| 
A |-x-----------x--x--x---| 
E |-9-----------9--9--9---| 
A |-----0-0-0-0-----------| 


************************************ 

| x   Dead note 
| p   Pull-off 
| /   Slide up 
| \   Slide down 
| ~   Hold out note 
| PM  Palm mute 
|( )  Harmonics 
| b   Bend 
| =   Cut off note 

************************************ 
  

top 5 | i prevail
top rock'n roll
Outras músicas do artista letras do(a) I Prevail
Top cifras »Top artistas »
Petaxxon Comunicação Online
Cifras.com.br - Melhor e mais completo site de cifras e tablaturas do Brasil
Mais de 1 milhão de acordes de músicas cadastradas desde 2003
As informações contidas no nosso site são colaborações de seus usuários e podem conter erros, sendo assim, não nos responsabilizamos sobre nenhuma destas.
close
menos
mais
close
Cor dos acordes:

Cor da letra:

 

save
close
close
 
redimensionar