Cifras e Tablaturas
I Prevail

I Prevail

Pull The Plug

Cifras Cancelar Versão de Impressão

I Prevail - Pull The Plug

Tom: C#

  			
Intro 
C#|----------------------------------|---------------------------------| 
G#|----------------------------------|---------------------------------| 
E |----------------------------------|---------------------------------| 
B |----------------------------------|-----------------------------5*--| 
F#|----------------------------------|-1-1--0--------------------------| 
B |-0h1--0--0-0--0--12--0-0---0--0-0-|-1-1--0--0-0--0-/12--0-0--0------| 

C#|----------------------------------|-----------------------| 
G#|----------------------------------|-----------------------| 
E |----------------------------------|-----------------------| 
B |----------------------------------|-----------------------| 
F#|-0h1------------------------------|-1-1--0----------------| 
B |-0h1--0--0-0--0--12--0-0---0--0-0-|-1-1--0--0-0--0-/12-=--| 

C#|----------------------------------|---------------------------------| 
G#|----------------------------------|---------------------------------| 
E |----------------------------------|---------------------------------| 
B |-0h1--0---------------------------|-1-1--0----------------------5*--| 
F#|-0h1--0--0-0--0------0-0---0--0-0-|-1-1--0--0-0--0------0-0---------| 
B |-0h1--0--0-0--0--12--0-0---0--0-0-|-1-1--0--0-0--0-/12--0-0--0------| 

C#|----------------------------------|--------------------------------| 
G#|----------------------------------|--------------------------------| 
E |----------------------------------|--------------------------------| 
B |-0h1--0---------------------------|-5-5--5--5-5--5--8--8-8---x-x-x-| 
F#|-0h1--0--0-0--0------0-0---0--0-0-|-5-5--5--5-5--5--8--8-8---x-x-x-| 
B |-0h1--0--0-0--0--12--0-0---0--0-0-|-5-5--5--5-5--5--8--8-8---------| 

Guitar 1 
C#|----------------------------------|---------------------------------| 
G#|----------------------------------|---------------------------------| 
E |----------------------------------|---------------------------------| 
B |-0h1--0---------------------------|-1-1--0----------------------5*--| 
F#|-0h1--0--0-0--0------0-0---0--0-0-|-1-1--0--0-0--0------0-0---------| 
B |-0h1--0--0-0--0--12--0-0---0--0-0-|-1-1--0--0-0--0-/12--0-0--0------| 

C#|----------------------------------|--------------------------------| 
G#|----------------------------------|--------------------------------| 
E |----------------------------------|--------------------------------| 
B |-0h1--0---------------------------|-5-5--5--5-5--5--8--8-8-x-x-x-x-| 
F#|-0h1--0--0-0--0------0-0---0--0-0-|-5-5--5--5-5--5--8--8-8-x-x-x-x-| 
B |-0h1--0--0-0--0--12--0-0---0--0-0-|-5-5--5--5-5--5--8--8-8---------| 

Guitar 2 
C#|-------------------------------------------------------------------------| 
G#|-3-3-3-3-3-3-3-3-10-10-10-10-10-10-10-10-5-5-5-5-5-5-5-5-6-6-6-6-6-6-6-6-| 
E |-x-x-x-x-x-x-x-x-x--x--x--x--x--x--x--x--x-x-x-x-x-x-x-x-x-x-x-x-x-x-x-x-| 
B |-0-0-0-0-0-0-0-0-7--7--7--7--7--7--7--7--2-2-2-2-2-2-2-2-3-3-3-3-3-3-3-3-| 
F#|-------------------------------------------------------------------------| 
B |-------------------------------------------------------------------------| 

C#|-------------------------------------------------------------------------| 
G#|-3-3-3-3-3-3-3-3-10-10-10-10-10-10-10-10-6-6-6-6-6-6-6-6-5-5-5-5-5-5-5-5-| 
E |-x-x-x-x-x-x-x-x-x--x--x--x--x--x--x--x--x-x-x-x-x-x-x-x-x-x-x-x-x-x-x-x-| 
B |-0-0-0-0-0-0-0-0-7--7--7--7--7--7--7--7--3-3-3-3-3-3-3-3-2-2-2-2-2-2-2-2-| 
F#|-------------------------------------------------------------------------| 
B |-------------------------------------------------------------------------| 

verse 1 
C#|------------------------------|----------------------------| 
G#|------------------------------|----------------------------| 
E |------------------------------|----------------------------| 
B |------------------------------|----------------------------| 
F#|-0-0---0-0--------0-0---0-0-0-|----0--0--------0-0---0-0-0-| 
B |-0-0---0-0---/12--0-0---0-0-0-|----0--0---/12--0-0---0-0-0-| 

C#|------------------------------|----------------------------| 
G#|------------------------------|----------------------------| 
E |------------------------------|----------------------------| 
B |------------------------------|-------------8--8-8---------| 
F#|-0-0---0-0--------0-0---0-0-0-|-0-0---0-0---8--8-8---8-8-8-| 
B |-0-0---0-0---/12--0-0---0-0-0-|-0-0---0-0---8--8-8---8-8-8-| 

C#|------------------------------|----------------------------| 
G#|------------------------------|----------------------------| 
E |------------------------------|----------------------------| 
B |------------------------------|----------------------------| 
F#|-0-0---0-0--------0-0---0-0-0-|----0--0--------0-0---0-0-0-| 
B |-0-0---0-0---/12--0-0---0-0-0-|----0--0---/12--0-0---0-0-0-| 

C#|------------------------------|----------------------------| 
G#|------------------------------|----------------------------| 
E |------------------------------|----------------------------| 
B |------------------------------|-------------8--8-8---------| 
F#|-0-0---0-0--------0-0---0-0-0-|-0-0---0-0---8--8-8---8-8-8-| 
B |-0-0---0-0---/12--0-0---0-0-0-|-0-0---0-0---8--8-8---8-8-8-| 

C#|----------------------------------|-------------------| 
G#|----------------------------------|-------------------| 
E |----------------------------------|-------------------| 
B |----------------------------------|-------------------| 
F#|-0h1--0---------------------------|-0h1--0------------| 
B |-0h1--0--0-0--0--12--0-0---0--0-0-|-0h1--0--0-0--0-=--| 

Chorus 
C#|---------------------------------|---------------------------------| 
G#|---------------------------------|---------------------------------| 
E |---------------------------------|---------------------------------| 
B |-0-------0-------0-------0~------|-8-------8-------8-------8-------| 
F#|-0-0-0-0-0-0-0-0-0-0-0-0-0---0-0-|-8-8-8-8-8-8-8-8-8-8-8-8-8-8-8-8-| 
B |-0-0-0-0-0-0-0-0-0-0-0-0-0---0-0-|-8-8-8-8-8-8-8-8-8-8-8-8-8-8-8-8-| 

C#|---------------------------------|---------------------------------| 
G#|---------------------------------|---------------------------------| 
E |---------------------------------|-5-------5-------5-------5-------| 
B |-3-------3-------3-------3-------|-5-5-5-5-5-5-5-5-5-5-5-5-5-5-5-5-| 
F#|-3-3-3-3-3-3-3-3-3-3-3-3-3-3-3-3-|-3-3-3-3-3-3-3-3-3-3-3-3-3-3-3-3-| 
B |-3-3-3-3-3-3-3-3-3-3-3-3-3-3-3-3-|---------------------------------| 

C#|---------------------------------|---------------------------------| 
G#|---------------------------------|---------------------------------| 
E |---------------------------------|---------------------------------| 
B |-0-------0-------0-------0-------|-8-------8-------8-------8-------| 
F#|-0-0-0-0-0-0-0-0-0-0-0-0-0-0-0-0-|-8-8-8-8-8-8-8-8-8-8-8-8-8-8-8-8-| 
B |-0-0-0-0-0-0-0-0-0-0-0-0-0-0-0-0-|-8-8-8-8-8-8-8-8-8-8-8-8-8-8-8-8-| 

C#|---------------------------------|----------------------------| 
G#|---------------------------------|----------------------------| 
E |---------------------------------|-5-------5------------------| 
B |-3-------3-------3-------3-------|-5-5-5-5-5-5-5-5-1---1---1--| 
F#|-3-3-3-3-3-3-3-3-3-3-3-3-3-3-3-3-|-3-3-3-3-3-3-3-3-1---1---1--| 
B |-3-3-3-3-3-3-3-3-3-3-3-3-3-3-3-3-|-----------------1---1---1--| 

Instrumental 
Guitar 1 
C#|----------------------------------|---------------------------------| 
G#|----------------------------------|---------------------------------| 
E |----------------------------------|---------------------------------| 
B |-0h1--0---------------------------|-1-1--0----------------------5*--| 
F#|-0h1--0--0-0--0------0-0---0--0-0-|-1-1--0--0-0--0------0-0---------| 
B |-0h1--0--0-0--0--12--0-0---0--0-0-|-1-1--0--0-0--0-/12--0-0--0------| 

C#|----------------------------------|--------------------------------| 
G#|----------------------------------|--------------------------------| 
E |----------------------------------|--------------------------------| 
B |-0h1--0---------------------------|-5-5--5--5-5--5--8--8-8-x-x-x-x-| 
F#|-0h1--0--0-0--0------0-0---0--0-0-|-5-5--5--5-5--5--8--8-8-x-x-x-x-| 
B |-0h1--0--0-0--0--12--0-0---0--0-0-|-5-5--5--5-5--5--8--8-8---------| 

Guitar 2 
C#|-------------------------------------------------------------------------| 
G#|-3-3-3-3-3-3-3-3-10-10-10-10-10-10-10-10-5-5-5-5-5-5-5-5-6-6-6-6-6-6-6-6-| 
E |-x-x-x-x-x-x-x-x-x--x--x--x--x--x--x--x--x-x-x-x-x-x-x-x-x-x-x-x-x-x-x-x-| 
B |-0-0-0-0-0-0-0-0-7--7--7--7--7--7--7--7--2-2-2-2-2-2-2-2-3-3-3-3-3-3-3-3-| 
F#|-------------------------------------------------------------------------| 
B |-------------------------------------------------------------------------| 

C#|-------------------------------------------------------------------------| 
G#|-3-3-3-3-3-3-3-3-10-10-10-10-10-10-10-10-6-6-6-6-6-6-6-6-5-5-5-5-5-5-5-5-| 
E |-x-x-x-x-x-x-x-x-x--x--x--x--x--x--x--x--x-x-x-x-x-x-x-x-x-x-x-x-x-x-x-x-| 
B |-0-0-0-0-0-0-0-0-7--7--7--7--7--7--7--7--3-3-3-3-3-3-3-3-2-2-2-2-2-2-2-2-| 
F#|-------------------------------------------------------------------------| 
B |-------------------------------------------------------------------------| 

verse 2 
C#|------------------------------|----------------------------| 
G#|------------------------------|----------------------------| 
E |------------------------------|----------------------------| 
B |------------------------------|----------------------------| 
F#|-0-0---0-0--------0-0---0-0-0-|----0--0--------0-0---0-0-0-| 
B |-0-0---0-0---/12--0-0---0-0-0-|----0--0---/12--0-0---0-0-0-| 

C#|------------------------------|----------------------------| 
G#|------------------------------|----------------------------| 
E |------------------------------|----------------------------| 
B |------------------------------|-------------8--8-8---------| 
F#|-0-0---0-0--------0-0---0-0-0-|-0-0---0-0---8--8-8---8-8-8-| 
B |-0-0---0-0---/12--0-0---0-0-0-|-0-0---0-0---8--8-8---8-8-8-| 

C#|------------------------------|----------------------------| 
G#|------------------------------|----------------------------| 
E |------------------------------|----------------------------| 
B |------------------------------|----------------------------| 
F#|-0-0---0-0--------0-0---0-0-0-|----0--0--------0-0---0-0-0-| 
B |-0-0---0-0---/12--0-0---0-0-0-|----0--0---/12--0-0---0-0-0-| 

C#|------------------------------|----------------------------| 
G#|------------------------------|----------------------------| 
E |------------------------------|----------------------------| 
B |------------------------------|-------------8--8-8---------| 
F#|-0-0---0-0--------0-0---0-0-0-|-0-0---0-0---8--8-8---8-8-8-| 
B |-0-0---0-0---/12--0-0---0-0-0-|-0-0---0-0---8--8-8---8-8-8-| 

C#|----------------------------------|-------------------| 
G#|----------------------------------|-------------------| 
E |----------------------------------|-------------------| 
B |----------------------------------|-------------------| 
F#|-0h1--0--0-0--0------0-0---0--0-0-|-0h1--0--0-0--0-=--| 
B |-0h1--0--0-0--0--12--0-0---0--0-0-|-0h1--0--0-0--0-=--| 

Chorus 
C#|---------------------------------|---------------------------------| 
G#|---------------------------------|---------------------------------| 
E |---------------------------------|---------------------------------| 
B |-0-------0-------0-------0~------|-8-------8-------8-------8-------| 
F#|-0-0-0-0-0-0-0-0-0-0-0-0-0---0-0-|-8-8-8-8-8-8-8-8-8-8-8-8-8-8-8-8-| 
B |-0-0-0-0-0-0-0-0-0-0-0-0-0---0-0-|-8-8-8-8-8-8-8-8-8-8-8-8-8-8-8-8-| 

C#|---------------------------------|---------------------------------| 
G#|---------------------------------|---------------------------------| 
E |---------------------------------|-5-------5-------5-------5-------| 
B |-3-------3-------3-------3-------|-5-5-5-5-5-5-5-5-5-5-5-5-5-5-5-5-| 
F#|-3-3-3-3-3-3-3-3-3-3-3-3-3-3-3-3-|-3-3-3-3-3-3-3-3-3-3-3-3-3-3-3-3-| 
B |-3-3-3-3-3-3-3-3-3-3-3-3-3-3-3-3-|---------------------------------| 

C#|---------------------------------|---------------------------------| 
G#|---------------------------------|---------------------------------| 
E |---------------------------------|---------------------------------| 
B |-0-------0-------0-------0-------|-8-------8-------8-------8-------| 
F#|-0-0-0-0-0-0-0-0-0-0-0-0-0-0-0-0-|-8-8-8-8-8-8-8-8-8-8-8-8-8-8-8-8-| 
B |-0-0-0-0-0-0-0-0-0-0-0-0-0-0-0-0-|-8-8-8-8-8-8-8-8-8-8-8-8-8-8-8-8-| 

C#|---------------------------------|----------------------------| 
G#|---------------------------------|----------------------------| 
E |---------------------------------|-5-------5------------------| 
B |-3-------3-------3-------3-------|-5-5-5-5-5-5-5-5-1---1---1--| 
F#|-3-3-3-3-3-3-3-3-3-3-3-3-3-3-3-3-|-3-3-3-3-3-3-3-3-1---1---1--| 
B |-3-3-3-3-3-3-3-3-3-3-3-3-3-3-3-3-|-----------------1---1---1--| 

Bridge 
(Guitar is out) 

Chorus 
C#|---------------------------------|---------------------------------| 
G#|---------------------------------|---------------------------------| 
E |---------------------------------|---------------------------------| 
B |-0-------0-------0-------0~------|-8-------8-------8-------8-------| 
F#|-0-0-0-0-0-0-0-0-0-0-0-0-0---0-0-|-8-8-8-8-8-8-8-8-8-8-8-8-8-8-8-8-| 
B |-0-0-0-0-0-0-0-0-0-0-0-0-0---0-0-|-8-8-8-8-8-8-8-8-8-8-8-8-8-8-8-8-| 

C#|---------------------------------|---------------------------------| 
G#|---------------------------------|---------------------------------| 
E |---------------------------------|-5-------5-------5-------5-------| 
B |-3-------3-------3-------3-------|-5-5-5-5-5-5-5-5-5-5-5-5-5-5-5-5-| 
F#|-3-3-3-3-3-3-3-3-3-3-3-3-3-3-3-3-|-3-3-3-3-3-3-3-3-3-3-3-3-3-3-3-3-| 
B |-3-3-3-3-3-3-3-3-3-3-3-3-3-3-3-3-|---------------------------------| 

C#|---------------------------------|---------------------------------| 
G#|---------------------------------|---------------------------------| 
E |---------------------------------|---------------------------------| 
B |-0-------0-------0-------0-------|-8-------8-------8-------8-------| 
F#|-0-0-0-0-0-0-0-0-0-0-0-0-0-0-0-0-|-8-8-8-8-8-8-8-8-8-8-8-8-8-8-8-8-| 
B |-0-0-0-0-0-0-0-0-0-0-0-0-0-0-0-0-|-8-8-8-8-8-8-8-8-8-8-8-8-8-8-8-8-| 

C#|---------------------------------|----------------------------| 
G#|---------------------------------|----------------------------| 
E |---------------------------------|-5-------5------------------| 
B |-3-------3-------3-------3-------|-5-5-5-5-5-5-5-5-1---1---1--| 
F#|-3-3-3-3-3-3-3-3-3-3-3-3-3-3-3-3-|-3-3-3-3-3-3-3-3-1---1---1--| 
B |-3-3-3-3-3-3-3-3-3-3-3-3-3-3-3-3-|-----------------1---1---1--| 

Outro 
Guitar 1 
C#|----------------------------------|---------------------------------| 
G#|----------------------------------|---------------------------------| 
E |----------------------------------|---------------------------------| 
B |-0h1--0---------------------------|-1-1--0----------------------5*--| 
F#|-0h1--0--0-0--0------0-0---0--0-0-|-1-1--0--0-0--0------0-0---------| 
B |-0h1--0--0-0--0--12--0-0---0--0-0-|-1-1--0--0-0--0-/12--0-0--0------| 

C#|----------------------------------|--------------------------------| 
G#|----------------------------------|--------------------------------| 
E |----------------------------------|--------------------------------| 
B |-0h1--0---------------------------|-5-5--5--5-5--5--8--8-8-x-x-x-x-| 
F#|-0h1--0--0-0--0------0-0---0--0-0-|-5-5--5--5-5--5--8--8-8-x-x-x-x-| 
B |-0h1--0--0-0--0--12--0-0---0--0-0-|-5-5--5--5-5--5--8--8-8---------| 

Guitar 2 
C#|-------------------------------------------------------------------------| 
G#|-3-3-3-3-3-3-3-3-10-10-10-10-10-10-10-10-5-5-5-5-5-5-5-5-6-6-6-6-6-6-6-6-| 
E |-x-x-x-x-x-x-x-x-x--x--x--x--x--x--x--x--x-x-x-x-x-x-x-x-x-x-x-x-x-x-x-x-| 
B |-0-0-0-0-0-0-0-0-7--7--7--7--7--7--7--7--2-2-2-2-2-2-2-2-3-3-3-3-3-3-3-3-| 
F#|-------------------------------------------------------------------------| 
B |-------------------------------------------------------------------------| 

C#|-------------------------------------------------------------------------| 
G#|-3-3-3-3-3-3-3-3-10-10-10-10-10-10-10-10-6-6-6-6-6-6-6-6-5-5-5-5-5-5-5-5-| 
E |-x-x-x-x-x-x-x-x-x--x--x--x--x--x--x--x--x-x-x-x-x-x-x-x-x-x-x-x-x-x-x-x-| 
B |-0-0-0-0-0-0-0-0-7--7--7--7--7--7--7--7--3-3-3-3-3-3-3-3-2-2-2-2-2-2-2-2-| 
F#|-------------------------------------------------------------------------| 
B |-------------------------------------------------------------------------| 

C#|------------------------| 
G#|------------8-10--------| 
E |------------x-x---------| 
B |-0--0--x-x--5-7--x-x-0--| 
F#|-0--0--x-x-------x-x-0--| 
B |-0--0----------------0--| 



************************************ 

| x   Dead note 
| h   Hammer-on 
| /   Slide up 
| ~   Hold out note 
| =   Cut off note 
| *   Pinch harmonic 

************************************ 
    	
fixar
fixar inscrever-se

enviado porenviado por: edsooliveira
cifra enviadaCorrigida por: sem correções
logo top cifrasComente
ico música do artistaMúsicas deste artista
ico curtiuCurtiu?
ico destaqueDestaque
Petaxxon Comunicação Online

Cifras.com.br - Melhor e mais completo site de cifras e tablaturas do Brasil Mais de 1 milhão de acordes de músicas cadastradas desde 2003
As informações contidas no nosso site são colaborações de seus usuários e podem conter erros, sendo assim, não nos responsabilizamos sobre nenhuma destas.

close
menos
mais
close
Cor dos acordes:

Cor da letra:

close
Alinhar acordes a direita Alinhar acordes a esquerda Alinhar acordes em baixo Alinhar acordes no topo
close
  Mostrar todos os acordes Esconder acordes muito fáceis Esconder acordes fáceis Esconder acordes intermediários
redimensionar
glossário