Cifras e Tablaturas
I See Stars

I See Stars

Crystal Ball

Cifras Cancelar Versão de Impressão

I See Stars - Crystal Ball

Tom: C

  			
* intro * 

e|---------------------------------------------------------| 
B|---------------------------------------------------------| 
G|---------------------------------------------------------| 
D|---------------------------------------------------------| 
A|--0-0000000--0-0-0-0-0-0--00-0---------------0----5-8----| x2 
E|--0-0000000--1-1-1-1-1-1--00-0--0-0-0-0-0-0--1-\------8--| 
    . .......  . . . . . .  .. .               . 

^ use the whammy bar to achieve that downtune effect 

* Chorus * 

e|------| 
B|------| 
G|------| 
D|--0~--| fades in 
A|--0~--| 
E|--0~--| 

e|------------------------------------| 
B|------------------------------------| 
G|------------------------------------| 
D|------------------------------------| 
A|--00000000-88888888-55555555--------| 
E|--00000000-88888888-55555555-0-3-8--| 

e|------------------------------------| 
B|------------------------------------| 
G|------------------------------------| 
D|------------------------------------| 
A|--00000000-88888888-55555555-8------| 
E|--00000000-88888888-55555555---0-8--| 

* breakdown * 

e|------------------------------------------------------| 
B|------------------------------------------------------| 
G|------------------------------------------------------| 
D|------------------------------------------------------|  
A|-000--0-00-0000--00-0-000000--0-00-0000---------------| x2 
E|-000--0-00-0000--00-0-000000--0-00-0000--000-0-00-00--| 
   ...  . .. ....  .. . ......  . .. ....  ...   .  . 

* * * dont play anything cuz groovy techno interlude * * * 

* breakdown #2 * 

e|---------------------------------------------------------| 
B|---------------------------------------------------------| 
G|---------------------------------------------------------| 
D|---------------------------------------------------------| 
A|--0-0000000--0-0-0-0-0-0--00-0---------------0----5-8----| x2 
E|--0-0000000--1-1-1-1-1-1--00-0--0-0-0-0-0-0--1-\------8--| 
    . .......  . . . . . .  .. .               . 

* breakdown #3 * 

e|---------------------------------| 
B|---------------------------------| 
G|---------------------------------| 
D|---------------------------------| 
A|-----------------------------0~--| x4  
E|--000-0-0--000-0-0--000-0-0--1~--| 
    ...      ...      ...      . 

^ the 3rd time around playing that, don't play the 10~ part 

* solo * 

Okay, so I haven't really figured it all out yet because some of the notes are kinda hard to hear but here's  
what I got, build off of it if you want. 

e|-----------------------------------------| 
B|--18~----17~-15~--18~----17~--15p14h15~--| 
G|------14--------------14-----------------| 
D|-----------------------------------------| 
A|-----------------------------------------| x2 
E|-----------------------------------------| 

* outro * 

Alright, this part has a very weird pattern, and it's hard to hear exactly what the guitarist is playing in  
the track :/ This is what I've made of it, feel free to experiment! 

e|-----------------------------------------------------| 
B|-----------------------------------------------------| 
G|-----------------------------------------------------| 
D|-----------------------------------------------------| 
A|--00000--0-0-000-0-0-0000-000--0-00-0000-0-----------| 
E|--00000--0-0-000-0-0-0000-000--0-00-0000-0-0-0-0000--| 
    .....  . . ... . . .... ...  . .. .... .   . .... 

e|------------------------------------------------------| 
B|------------------------------------------------------| 
G|------------------------------------------------------| 
D|------------------------------------------------------| 
A|--00000--0-0-000-0-0-0000-000--0-00-0000-0------------| 
E|--00000--0-0-000-0-0-0000-000--0-00-0000-0-0-0-0-0-0--| 
    .....  . . ... . . .... ...  . .. .... .   .   . 

THE END 
    	
fixar
fixar inscrever-se

enviado porenviado por: jov-correa
cifra enviadaCorrigida por: sem correções
logo top cifrasComente
ico música do artistaMúsicas deste artista
ico curtiuCurtiu?
ico destaqueDestaque
Petaxxon Comunicação Online

Cifras.com.br - Melhor e mais completo site de cifras e tablaturas do Brasil Mais de 1 milhão de acordes de músicas cadastradas desde 2003
As informações contidas no nosso site são colaborações de seus usuários e podem conter erros, sendo assim, não nos responsabilizamos sobre nenhuma destas.

close
menos
mais
close
Cor dos acordes:

Cor da letra:

close
Alinhar acordes a direita Alinhar acordes a esquerda Alinhar acordes em baixo Alinhar acordes no topo
close
  Mostrar todos os acordes Esconder acordes muito fáceis Esconder acordes fáceis Esconder acordes intermediários
redimensionar
glossário