Cifras e Tablaturas
Cifras Cancelar Versão de Impressão
cifras

Icon For Hire - Pulse

fixar na tela  
Exibindo: vídeo-aula ver clipes redimensionar

Tom:

G

ver outros tons
  
Guitar 1, Verse part 1: 
e|--------------------------------------------------------------------| 
B|--------------------------------------------------------------------| 
G|--------------------------------------------------------------------| 
D|-5------5-----------------------------5------5----------------------| 
A|-5------5-----------------------------5------5----------------------| 
D|-5------5-----------------------------5------5----------------------| 
  “Do your thing...”                    “They're so scripted...” 

Guitar 1, Verse part 2: 
e|-------------------|-------------|-------------|--------------------| 
B|-------------------|-------------|-------------|--------------------| 
G|-------------------|-------------|-------------|--------------------| 
D|-x-x-x-5--5--x-x-5-|-5--5--x-x-5-|-5--5--x-x-5-|-5--5--x-x-5-x-x-x-x| 
A|-x-x-x-5--5--x-x-5-|-5--5--x-x-5-|-5--5--x-x-5-|-5--5--x-x-5-x-x-x-x| 
D|-x-x-x-5--5--x-x-5-|-5--5--x-x-5-|-5--5--x-x-5-|-5--5--x-x-5-x-x-x-x| 

Guitar 1, Pre-Chorus 
e|---------------------------------|----------------------------------| 
B|---------------------------------|----------------------------------| 
G|---------------------------------|----------------------------------| 
D|-5-5-5-5-5-5-5-5-3-3-3-3-3-3-3-3-|-1-1-1-1-1-1-1-1-3-3-3-3-3-3-3-3--| 
A|-5-5-5-5-5-5-5-5-3-3-3-3-3-3-3-3-|-1-1-1-1-1-1-1-1-3-3-3-3-3-3-3-3--| 
D|-5-5-5-5-5-5-5-5-3-3-3-3-3-3-3-3-|-1-1-1-1-1-1-1-1-3-3-3-3-3-3-3-3--| 
P.M. . . . . . . . . . . . . . . . . . . . . . . . . . . . . . . . 

Guitar 1, Pre-Chorus 
e|----------------------------------|---------------------------------| 
B|----------------------------------|---------------------------------| 
G|----------------------------------|---------------------------------| 
D|--5-5-5-5-5-5-5-5-3-3-3-3-3-3-3-3-|-1-1-1-1-1-1-1-1-3-3-3-3-3-3-3-3-| 
A|--5-5-5-5-5-5-5-5-3-3-3-3-3-3-3-3-|-1-1-1-1-1-1-1-1-3-3-3-3-3-3-3-3-| 
D|--5-5-5-5-5-5-5-5-3-3-3-3-3-3-3-3-|-1-1-1-1-1-1-1-1-3-3-3-3-3-3-3-3-| 
P.M . . . . . . . . . . . . . . . .   . . . . . . .  


Guitar 1, Chorus: (Guitar only plays 2nd half) 
e|---------------------------------|----------------------------------| 
B|---------------------------------|----------------------------------| 
G|---------------------------------|----------------------------------| 
D|-1-1-1-1-1-1-1-1-3-3-3-3-3-3-3-3-|-5-5-5-5-5-5-5-5-3-3-3-3-3-8-8-8--| 
A|-1-1-1-1-1-1-1-1-3-3-3-3-3-3-3-3-|-5-5-5-5-5-5-5-5-3-3-3-3-3-8-8-8--| 
D|-1-1-1-1-1-1-1-1-3-3-3-3-3-3-3-3-|-5-5-5-5-5-5-5-5-3-3-3-3-3-8-8-8--| 
P.M. . . . . . . . . . . . . . . .   . . . . . . . . . . . . . . . 

e|---------------------------------|----------------------------------| 
B|---------------------------------|----------------------------------| 
G|---------------------------------|----------------------------------| 
D|-1-1-1-1-1-1-1-1-3-3-3-3-3-3-3-3-|-5-5-5-5-5-5-5-5-5-5-5-5-5--------| 
A|-1-1-1-1-1-1-1-1-3-3-3-3-3-3-3-3-|-5-5-5-5-5-5-5-5-5-5-5-5-5--------| 
D|-1-1-1-1-1-1-1-1-3-3-3-3-3-3-3-3-|-5-5-5-5-5-5-5-5-5-5-5-5-5--------| 
P.M. . . . . . . . . . . . . . . . . . . . . . . .  

Guitar 1, Post Chorus Breakdown: (Two chords every four beats) 
e|--------------------------------|-----------------------------------| 
B|--------------------------------|-----------------------------------| 
G|--------------------------------|-----------------------------------| 
D|--5--5--------------5--5--------|-----5--5--------------5--5--------| 
A|--5--5--------------5--5--------|-----5--5--------------5--5--------| 
D|--5--5--------------5--5--------|-----5--5--------------5--5--------| 

Guitar 2, Intro and Verse: 
e|-------------------|------------|-----------------------------------| 
B|-------------------|------------|-----------------------------------| 
G|----------3--------|---3--------|---3-------------------------------| 
D|--5--5--3---6--6-5-|-3---6--6-5-|-3---6--5-6---5-3-5----------------| 
A|-------------------|------------|-----------------------------------| 
E|-------------------|------------|-----------------------------------| 

Guitar 2, Chorus: (This part is an organ type synth, play twice) 
e|---------------------------------| 
B|---------------------------------| 
G|---------------------------------| 
D|--5---7---5---7---5---7---9------| 
A|------8-------8-------8---10-----| 
E|---------------------------------| 

Guitar 2, Post-Chorus Breakdown: 
e|-------------------|------------|-----------------------------------| 
B|-------------------|------------|-----------------------------------| 
G|-------------------|---3--------|---3-------------------------------| 
D|--5--5--3---6--5-6-|-3---6--5-6-|-3---6--5-6---5-3-5----------------| 
A|-------------------|------------|-----------------------------------| 
E|-------------------|------------|-----------------------------------| 

Still figuring out the synth in the bridge! Until then: 
Repeat Verse, Pre-Chorus, Chorus, and Breakdown 
Repeat Chorus Twice to wrap it up 

P.M. stands for Palm Mute 

************************************ 

| x  Dead note 

************************************ 
  

top 5 | icon for hire
top rock alternativo
Outras músicas do artista letras do(a) Icon For Hire
Top cifras »Top artistas »
Petaxxon Comunicação Online
Cifras.com.br - Melhor e mais completo site de cifras e tablaturas do Brasil
Mais de 1 milhão de acordes de músicas cadastradas desde 2003
As informações contidas no nosso site são colaborações de seus usuários e podem conter erros, sendo assim, não nos responsabilizamos sobre nenhuma destas.
close
menos
mais
close
Cor dos acordes:

Cor da letra:

 

save
close
close
 
redimensionar