Cifras e Tablaturas
Iggy Pop

Iggy Pop

Sunday

Cifras Cancelar Versão de Impressão
cifras

Iggy Pop - Sunday

fixar na tela  
Exibindo: vídeo-aula ver clipes redimensionar

Tom:

  
INTRO 
e|-10---8-----8--7----7-7-5-|-10---8-----8--7----7-7-5-|-10---8-----8--7----7----5-|----------------------| 
B|-10--10----10--8--5/8-8-7-|-10--10----10--8----8-8-7-|-10--10----10--8--5/8--5/7-|----------------------| 
G|--------------------------|--------------------------|---------------------------|--9-7-----------------| 
D|--------------------------|--------------------------|---------------------------|------10-7------7-----| 
A|--------------------------|--------------------------|---------------------------|-----------7-10---7-5-| 
E|--------------------------|--------------------------|---------------------------|----------------------| 

e|-------------| 
B|-----5-------| 
G|-5h7---7p5---| 
D|-----------7-| 
A|-------------| 
E|-------------| 

VERSE 
e|------------------------------10-10-12-12-|------------------------------10-10-12-12-| 
B|-5--5-5------5---5---5--5-5---10-10-10-10-|-5--5-5------5---5---5--5-5---10-10-10-10-| 
G|-5--5-5--5h7---7-----5--5-5---------------|-5--5-5--5h7---7-----5--5-5---------------| 
D|-5--5-5--------------5--5-5---------------|-5--5-5--------------5--5-5---------------| 
A|------------------------------------------|------------------------------------------| 
E|------------------------------------------|------------------------------------------| 

e|-----8-10-12-------------------|-----8-10-12--12/14-14-14-14-12---8--8-7-10b11r10-| 
B|-5--10-10-13--5--5-5-----5---5-|-5--10-10-13--13/15-15-15-15-13--10-10-8-12b13r12-| 
G|-5------------5--5-5-5h7---7---|-5------------------------------------------------| 
D|-5------------5--5-5-----------|-5------------------------------------------------| 
A|-------------------------------|--------------------------------------------------| 
E|-------------------------------|--------------------------------------------------| 

e|-----8-10-12-----------10-10-12-12-|-----8-10-12--12/14-14-14-14-12---8--8-7-10b11r10-| 
B|-5--10-10-13--5--5-5---10-10-10-10-|-5--10-10-13--13/15-15-15-15-13--10-10-8-12b13r12-| 
G|-5------------5--5-5---------------|-5------------------------------------------------| 
D|-5------------5--5-5---------------|-5------------------------------------------------| 
A|-----------------------------------|--------------------------------------------------| 
E|-----------------------------------|--------------------------------------------------| 

Pre-Chorus 
e|----------------7-7-5-|------------------7---5---| 
B|---------10--8--8-8-7-|---------10--8--5/8-5/7---| 
G|-11---9--11--9--------|-11---9--11--9----------5-| 
D|-12--10---------------|-12--10-------------------| 
A|----------------------|--------------------------| 
E|----------------------|--------------------------| 

Chorus (Quite hard to hear, but this sounds pretty close) 
e|-------------------------|-------------------------|---------------------|----------------------------| 
B|-------------------------|-------------------------|-12-10-12-10------10-|-12-10-12-10-10-10-10-12-10-| 
G|-14-12-14-12-------12-12-|-14-12-14-12-------12-12-|-11-11-11-11-9/11-11-|-11-11-11-11-11-11-11-12-11-| 
D|-10-10-10-10-12/14-14-14-|-10-10-10-10-12/14-14-14-|---------------------|----------------------------| 
A|-------------------------|-------------------------|---------------------|----------------------------| 
E|-------------------------|-------------------------|---------------------|----------------------------| 

e|-------------------------|-------------------------|---------------------|----------------------------| 
B|-------------------------|-------------------------|-12-10-12-10------10-|-12-10-12-10-10-10-10-12-10-| 
G|-14-12-14-12-------12-12-|-14-12-14-12-------12-12-|-11-11-11-11-9/11-11-|-11-11-11-11-11-11-11-12-11-| 
D|-10-10-10-10-12/14-14-14-|-10-10-10-10-12/14-14-14-|---------------------|----------------------------| 
A|-------------------------|-------------------------|---------------------|----------------------------| 
E|-------------------------|-------------------------|---------------------|----------------------------| 

e|-------------------------|-------------------------|---------------------|----------------------------| 
B|-------------------------|-------------------------|-12-10-12-10------10-|-12-10-12-10-10-10-10-12-10-| 
G|-14-12-14-12-------12-12-|-14-12-14-12-------12-12-|-11-11-11-11-9/11-11-|-11-11-11-11-11-11-11-12-11-| 
D|-10-10-10-10-12/14-14-14-|-10-10-10-10-12/14-14-14-|---------------------|----------------------------| 
A|-------------------------|-------------------------|---------------------|----------------------------| 
E|-------------------------|-------------------------|---------------------|----------------------------| 

e|-------------------------|-------------------------|-------------------| 
B|-------------------------|-------------------------|-------------------| 
G|-14-12-14-12-------12-12-|-14-12-14-12-------12-12-|--9--9-/10-10-\5-5-| 
D|-10-10-10-10-12/14-14-14-|-10-10-10-10-12/14-14-14-|-10-10-/12-12-\7-7-| 
A|-------------------------|-------------------------|-------------------| 
E|-------------------------|-------------------------|-------------------| 


PRE VERSE 
e|-10---8-----8--7----7-7-5-|-10---8-----8--7----7----5---| 
B|-10--10----10--8----8-8-7-|-10--10----10--8--5/8--5/7---| 
G|--------------------------|---------------------------5-| x2 
D|--------------------------|-----------------------------| 
A|--------------------------|-----------------------------| 
E|--------------------------|-----------------------------| 

VERSE 
e|------------------------------10-10-12-12-|-------------------------------10-10-12-12-| 
B|-5--5-5------5---5---5--5-5---10-10-10-10-|-5--5-5------5--------5--5-5---10-10-10-10-| 
G|-5--5-5--5h7---7-----5--5-5---------------|-5--5-5--5h7---7-5----5--5-5---------------| 
D|-5--5-5--------------5--5-5---------------|-5--5-5------------7--5--5-5---------------| 
A|------------------------------------------|-------------------------------------------| 
E|------------------------------------------|-------------------------------------------| 

e|-----8-10-12-------------------|-----8-10-12--12/14-14-14-14-12---8--8-7-10b11r10-| 
B|-5--10-10-13--5--5-5-----5---5-|-5--10-10-13--13/15-15-15-15-13--10-10-8-12b13r12-| 
G|-5------------5--5-5-5h7---7---|-5------------------------------------------------| 
D|-5------------5--5-5-----------|-5------------------------------------------------| 
A|-------------------------------|--------------------------------------------------| 
E|-------------------------------|--------------------------------------------------| 

e|-----8-10-12-----------10-10-12-12-|-----8-10-12--12/14-14-14-14-12---8--8-7-10b11r10-| 
B|-5--10-10-13--5--5-5---10-10-10-10-|-5--10-10-13--13/15-15-15-15-13--10-10-8-12b13r12-| 
G|-5------------5--5-5---------------|-5------------------------------------------------| 
D|-5------------5--5-5---------------|-5------------------------------------------------| 
A|-----------------------------------|--------------------------------------------------| 
E|-----------------------------------|--------------------------------------------------| 

Pre-Chorus 
e|----------------7-7-5-|------------------7---5---| 
B|---------10--8--8-8-7-|---------10--8--5/8-5/7---| 
G|-11---9--11--9--------|-11---9--11--9----------5-| 
D|-12--10---------------|-12--10-------------------| 
A|----------------------|--------------------------| 
E|----------------------|--------------------------| 

Chorus (Same as before) 
e|-------------------------|-------------------------|---------------------|----------------------------| 
B|-------------------------|-------------------------|-12-10-12-10------10-|-12-10-12-10-10-10-10-12-10-| 
G|-14-12-14-12-------12-12-|-14-12-14-12-------12-12-|-11-11-11-11-9/11-11-|-11-11-11-11-11-11-11-12-11-| 
D|-10-10-10-10-12/14-14-14-|-10-10-10-10-12/14-14-14-|---------------------|----------------------------| 
A|-------------------------|-------------------------|---------------------|----------------------------| 
E|-------------------------|-------------------------|---------------------|----------------------------| 

e|-------------------------|-------------------------|---------------------|----------------------------| 
B|-------------------------|-------------------------|-12-10-12-10------10-|-12-10-12-10-10-10-10-12-10-| 
G|-14-12-14-12-------12-12-|-14-12-14-12-------12-12-|-11-11-11-11-9/11-11-|-11-11-11-11-11-11-11-12-11-| 
D|-10-10-10-10-12/14-14-14-|-10-10-10-10-12/14-14-14-|---------------------|----------------------------| 
A|-------------------------|-------------------------|---------------------|----------------------------| 
E|-------------------------|-------------------------|---------------------|----------------------------| 

e|-------------------------|-------------------------|---------------------|----------------------------| 
B|-------------------------|-------------------------|-12-10-12-10------10-|-12-10-12-10-10-10-10-12-10-| 
G|-14-12-14-12-------12-12-|-14-12-14-12-------12-12-|-11-11-11-11-9/11-11-|-11-11-11-11-11-11-11-12-11-| 
D|-10-10-10-10-12/14-14-14-|-10-10-10-10-12/14-14-14-|---------------------|----------------------------| 
A|-------------------------|-------------------------|---------------------|----------------------------| 
E|-------------------------|-------------------------|---------------------|----------------------------| 

e|-------------------------|-------------------------|-------------------| 
B|-------------------------|-------------------------|-------------------| 
G|-14-12-14-12-------12-12-|-14-12-14-12-------12-12-|--9--9-/10-10-\5-5-| 
D|-10-10-10-10-12/14-14-14-|-10-10-10-10-12/14-14-14-|-10-10-/12-12-\7-7-| 
A|-------------------------|-------------------------|-------------------| 
E|-------------------------|-------------------------|-------------------| 

BREAK 
e|--------------------------------------| 
B|-5--5-5--XXXX--5--5-5-----5-----------| 
G|-5--5-5--XXXX--5--5-5-5h7---7-5-------| 
D|-5--5-5--XXXX--5--5-5-----------7-5p0-| 
A|--------------------------------------| 
E|--------------------------------------| 


e|--------------------------------|------------------------------------------------| 
B|--------------------------------|---12-10-12-10------12-10-12-10-10-10-10-12-10--| 
G|-14-12-14-12------14-12-14-12---|---11-11-11-11------11-11-11-11-11-11-11-12-11--| 
D|-10-10-10-10------10-10-10-10---|------------------------------------------------| 
A|--------------------------------|------------------------------------------------| 
E|--------------------------------|------------------------------------------------| 

e|--------------------------------|-------------------------------------| 
B|--------------------------------|---12-10-12-10------12-10-12-10------| 
G|-14-12-14-12------14-12-14-12---|---11-11-11-11------11-11-11-11------| 
D|-10-10-10-10------10-10-10-10---|-------------------------------------| 
A|--------------------------------|-------------------------------------| 
E|--------------------------------|--------------------------------7--8-| 

e|-10---8-----8--7----7-7-5-|-10---8-----8--7----7----5-|-10---8-----8--7----7-7-5-|----------------------| 
B|-10--10----10--8--5/8-8-7-|-10--10----10--8--5/8--5/7-|-10--10----10--8----8-8-7-|----------------------| 
G|--------------------------|---------------------------|--------------------------|--9-7-----------------| 
D|--------------------------|---------------------------|--------------------------|------10-7------7-----| 
A|--------------------------|---------------------------|--------------------------|-----------7-10---7-5-| 
E|--------------------------|---------------------------|--------------------------|----------------------| 

e|-------------| 
B|-----5-------| 
G|-5h7---7p5---| 
D|-----------7-| 
A|-------------| 
E|-------------| 

SOLO 
e|-------------------------------------------------------5---5-------| 
B|-----5-----5-----5-----5---5-------7-----7---7/8---5-8---8---8-5---| 
G|---5-----5-----5-----5-------5-------7-----7-----5---------------5-| Repeat Until End 
D|-7-----7-----7-----7-----7-----7-0-----0---------------------------|  
A|(0)---(0)---(0)---(0)---(0)---(0)----------------------------------| 
E|-------------------------------------------------------------------| 

(Something like this plays in the background) 
e|--------------------------------10--8-| 
B|--------------------------------10-10-| 
G|--------------------------------------| 
D|-10--------------12--12--12-10--------| 
A|-----12-----12-0----------------------| 
E|---------12---------------------------| 


Then these bits play over the top 
e|-------------------------------------------------------| 
B|-10b11r10-8--------10b11-10-8------10-------10b11r10-8-| 
G|------------11-9--------------11-9----9/11-------------| 
D|-------------------------------------------------------| 
A|-------------------------------------------------------| 
E|-------------------------------------------------------| 

e|-----------------------------------------------| 
B|-13--12----12----------------------------------| 
G|--------14-----14-12-14-12-11-12-11------------| 
D|------------------------------------14-12------| 
A|--------------------------------------------15-| 
E|-----------------------------------------------| 

And that's pretty much it! 


************************************ 

| x   Dead note 
| g   Grace note 
| (n) Ghost note 
| h   Hammer-on 
| p   Pull-off 
| r   Release 
| >   Accented note 
| t   Tapping 
| b   Bend 
| br  Bend release 
| pb  Pre-bend 
| pbr Pre-bend release 
| /   Slide up 
| \   Slide down 
| ~   Vibrato 
| s   Slap 
| P   Pop 
| PM  Palm mute 
| TR  Trill 
| N   Tremolo 

************************************ 
  

top 5 | iggy pop
top rock'n roll
Outras músicas do artista letras do(a) Iggy Pop
Top cifras »Top artistas »
Petaxxon Comunicação Online
Cifras.com.br - Melhor e mais completo site de cifras e tablaturas do Brasil
Mais de 1 milhão de acordes de músicas cadastradas desde 2003
As informações contidas no nosso site são colaborações de seus usuários e podem conter erros, sendo assim, não nos responsabilizamos sobre nenhuma destas.
close
menos
mais
close
Cor dos acordes:

Cor da letra:

 

save
close
close
 
redimensionar