Cifras e Tablaturas
Illenium

Illenium

No Time Like Now

Cifras Cancelar Versão de Impressão Print

Illenium - No Time Like Now

Tom: E

  			
Intro 

e|-------|-------|-------|-------| 
B|-------|-------|-------|-------| 
G|---5---|-------|---5---|---3---| 
D|-6---6-|-6-6-6-|-6---6-|-6---6-| x10 
A|-------|-------|-------|-------| 
E|-------|-------|-------|-------| 

             or    play 

e|-------|-------|-------|-------| 
B|-------|-------|-------|-------| 
G|-8---8-|-6---6-|-5---5-|-3---3-| 
D|-------|-------|-------|-------| x10 
A|-------|-------|-------|-------| 
E|-------|-------|-------|-------| 

       after 6 of the above, 
       these bass notes come in 

e|---------------|---------------|---------------|---------------| 
B|---------------|---------------|---------------|---------------| 
G|---------------|---------------|---------------|---------------| 
D|---------------|---------------|---------------|---------------| x2 
A|-4-------------|-6-------------|---------------|---------------| 
E|---------------|---------------|-5-------------|-5-------------| 
    	
fixar
fixar inscrever-se

enviado porenviado por: sabrjoao
cifra enviadaCorrigida por: sem correções
logo top cifrasComente
ico música do artistaMúsicas deste artista
ico curtiuCurtiu?
ico destaqueDestaque
Petaxxon Comunicação Online

Cifras.com.br - Melhor e mais completo site de cifras e tablaturas do Brasil Mais de 1 milhão de acordes de músicas cadastradas desde 2003
As informações contidas no nosso site são colaborações de seus usuários e podem conter erros, sendo assim, não nos responsabilizamos sobre nenhuma destas.

close
menos
mais
close
Cor dos acordes:

Cor da letra:

close
Alinhar acordes a direita Alinhar acordes a esquerda Alinhar acordes em baixo Alinhar acordes no topo
close
  Mostrar todos os acordes Esconder acordes muito fáceis Esconder acordes fáceis Esconder acordes intermediários
redimensionar
glossário