Cifras e Tablaturas
Immortal

Immortal

Solarfall

Cifras Cancelar Versão de Impressão Print

Immortal - Solarfall

Tom:

  			Key
= after note = vibrato
^ after note = heavy vibrato 
\ = slide down
/ = slide up
+ = tap
h = hammer
p = pull
n = natural harmonic
s = pinching harmonic (squeal)
* = tremolo pick
t = trill
b = bend
|-3-| = triplet

n number above the tab = play the first part then the first finishing part
			 play the first part a second time and then play the second finishing part
			 etc.

Riff 1

E -------------------------------------------------------------------------------------------------------------
B -------------------------------------------------------------------------------------------------------------
G -9---14-16-16----12-14-14----11-12-12-12-11-11-11-9-7-9---14-16-16----12-14-14----11-12-12-12-17-17-17-16-16-
D -------------------------------------------------------------------------------------------------------------
A -7---12-14-14----10-12-12----9 -10-10-10-9 -9 -9 -7-5-7---12-14-14----10-12-12----9 -10-10-10-15-15-15-14-14-
E -------------------------------------------------------------------------------------------------------------

E -------------------------------------------------------------------------------------------------------------
B -------------------------------------------------------------------------------------------------------------
G -9---14-16-16----12-14-14----11-12-12-12-11-11-11-9-7-9---14-16-16----12-14-14----11-12-12-12-17-17-17-16-16-
D -------------------------------------------------------------------------------------------------------------
A -7---12-14-14----10-12-12----9 -10-10-10-9 -9 -9 -7-5-7---12-14-14----10-12-12----9 -10-10-10-15-15-15-14-14-
E -------------------------------------------------------------------------------------------------------------

Riff 1A

E -------------------------------------------------------------------------------------------------
B -------------------------------------------------------------------------------------------------
G -------------------------------------------------------------------------------------------------
D -2-2-2-2-2-2-2-2-2-2-2-2-2-2-2-2-2-2-2-2-2-2-2-2-4-4-4-4-4-4-4-4-4-4-4-4-4-4-4-4-4-4-4-4-4-4-4-4-
A -2-2-2-2-2-2-2-2-2-2-2-2-2-2-2-2-2-2-2-2-2-2-2-2-4-4-4-4-4-4-4-4-4-4-4-4-4-4-4-4-4-4-4-4-4-4-4-4-
E -0-0-0-0-0-0-0-0-0-0-0-0-0-0-0-0-0-0-0-0-0-0-0-0-2-2-2-2-2-2-2-2-2-2-2-2-2-2-2-2-2-2-2-2-2-2-2-2-

E -------------------------------------------------------------------------------------------------
B -------------------------------------------------------------------------------------------------
G -------------------------------------------------------------------------------------------------
D -5-5-5-5-5-5-5-5-5-5-5-5-5-5-5-5-5-5-5-5-5-5-5-5-2-2-2-2-2-2-2-2-2-2-2-2-2-2-2-2-2-2-2-2-2-2-2-2-
A -5-5-5-5-5-5-5-5-5-5-5-5-5-5-5-5-5-5-5-5-5-5-5-5-2-2-2-2-2-2-2-2-2-2-2-2-2-2-2-2-2-2-2-2-2-2-2-2-
E -3-3-3-3-3-3-3-3-3-3-3-3-3-3-3-3-3-3-3-3-3-3-3-3-0-0-0-0-0-0-0-0-0-0-0-0-0-0-0-0-0-0-0-0-0-0-0-0-

Riff 1B

E -------------------------------------------------------------------------------------------------------------
B -------------------------------------------------------------------------------------------------------------
G -9---14-16-16----12-14-14----11-12-12-12-11-11-11-9-7-9---14-16-16----12-14-14----11-12-12-12-17-17-17-16-16-
D -------------------------------------------------------------------------------------------------------------
A -7---12-14-14----10-12-12----9 -10-10-10-9 -9 -9 -7-5-7---12-14-14----10-12-12----9 -10-10-10-15-15-15-14-14-
E -------------------------------------------------------------------------------------------------------------

E ------------------------------------------------------------------------------------------------
B ------------------------------------------------------------------------------------------------
G -9---14-16-16----12-14-14----11-12-12-12-11-11-11-9-7-9--9-9-9-9-7--7-7-7-7-5--5-5-5-5-4--4-----
D ------------------------------------------------------9--9-9-9-9-7--7-7-7-7-5--5-5-5-5-4--4-5---
A -7---12-14-14----10-12-12----9 -10-10-10-9 -9 -9 -7-5-7--7-7-7-7-5--5-5-5-5-3--3-3-3-3-2--2-5---
E --------------------------------------------------------------------------------------------3---

Riff 1C

E -------------------------------------------------------------------------------------------------
B -------------------------------------------------------------------------------------------------
G -------------------------------------------------------------------------------------------------
D -2-2-2-2-2-2-2-2-2-2-2-2-2-2-2-2-2-2-2-2-2-2-2-2-4-4-4-4-4-4-4-4-4-4-4-4-4-4-4-4-4-4-4-4-4-4-4-4-
A -2-2-2-2-2-2-2-2-2-2-2-2-2-2-2-2-2-2-2-2-2-2-2-2-4-4-4-4-4-4-4-4-4-4-4-4-4-4-4-4-4-4-4-4-4-4-4-4-
E -0-0-0-0-0-0-0-0-0-0-0-0-0-0-0-0-0-0-0-0-0-0-0-0-2-2-2-2-2-2-2-2-2-2-2-2-2-2-2-2-2-2-2-2-2-2-2-2-

E -------------------------------------------------------------------------------------------
B -------------------------------------------------------------------------------------------
G -------------------------------------------------9--9-------7--7-------5--5-------4--4-----
D -5-5-5-5-5-5-5-5-5-5-5-5-5-5-5-5-5-5-5-5-5-5-5-5-9--9-------7--7-------5--5-------4--4-5---
A -5-5-5-5-5-5-5-5-5-5-5-5-5-5-5-5-5-5-5-5-5-5-5-5-7--7-7-7-7-5--5-5-5-5-3--3-3-3-3-2--2-5---
E -3-3-3-3-3-3-3-3-3-3-3-3-3-3-3-3-3-3-3-3-3-3-3-3---------------------------------------3---

Riff 2

E -------------------------------------------------------------------------------------
B -------------------------------------------------------------------------------------
G -9--9-------11---------12------------------------9--9-------11----------7------------
D -9--9-------11---------12---------9----9---------9--9-------11----------7------------
A -7--7-------9 ---------10-----------10---12-9-12-7--7-------9 ----------5------------
E ------0-0-0------0-0-0------0-0-0---------------------0-0-0-----0-0-0-0--------------

E ----------------------------------------------------------------------------------------
B ----------------------------------------------------------------------------------------
G -9--9-------11---------12------------------------9--9--------11------------------7------
D -9--9-------11---------12---------9----9---------9--9--------11-----------9------7------
A -7--7-------9 ---------10-----------10---12-9-12-7--7--------9 -----------9------5------
E --------------------------------------------------------------------------7-------------

Riff 3

E -----------------------------------------------------------------------------------------
B -----------------------------------------------------------------------------------------
G -7-9-9-9-9-9-9---------------------7-------7-9-9-9-9-9-9---------------------------------
D -7-9-9-9-9-9-9---------8-----------7-------7-9-9-9-9-9-9---------8-----------------------
A -5-7-7-7-7-7-7---------8-----------5-------5-7-7-7-7-7-7---------8-----------6-5-3-------
E ---------------0-0-0-0-6-0-0-0-0-0-----------------------0-0-0-0-6-0-0-0-0-0-------6-5-4-

Riff 4

E ------------------------------------------------------------------------------------------------------------
B ------------------------------------------------------------------------------------------------------------
G -7-9-9-9-9-9-9---------10-10-10-10-10-10-7-7-7-10-10-10-7-9-9-9-9-9-9---------10-10-10-5-5-5-7-7-7-12-12-12-
D -7-9-9-9-9-9-9---------10-10-10-10-10-10-7-7-7-10-10-10-7-9-9-9-9-9-9---------10-10-10-5-5-5-7-7-7-12-12-12-
A -5-7-7-7-7-7-7---------8 -8 -8 -8 -8 -8 -5-5-5-8 -8 -8 -5-7-7-7-7-7-7---------8 -8 -8 -3-3-3-5-5-5-10-10-10-
E ----------------0-0--0-------------------------------------------------0-0--0-------------------------------

Riff 5

						    1
E ------------------------------------------------- -------------------------------------------------
B ------------------------------------------------- -------------------------------------------------
G -------------------------0----------------------- -------------0-----------------------0-----------
D -0-----0-----0-----0-----------0-----0-----0----- -2-----0-----------0-----2-----0-----------0-----
A ---3-----3-----3-----3-----3-----3-----3-----3--- ---2-----2-----2-----2-----2-----2-----2-----2---
E -----1-----1-----1-----1-----1-----1-----1-----1- -----0-----0-----0-----0-----0-----0-----0-----0-

2
E -------------------------------------------------
B -------------------------------------------------
G -------------------------------------------------
D -2-----0-----3-----0-----2-----0-----3-----0-----
A ---2-----2-----2-----2-----2-----2-----2-----2---
E -----0-----0-----0-----0-----0-----0-----0-----0-

Riff 6

E -----------------------------------------------------------------------------------
B -----------------------------------------------------------------------------------
G -11---9---------9--------------------9---11---9---------9--------------------------
D -11---9---------9---*9 ---*7---------9---11---9---------9---*9 ---------*7---------
A -9 ---7---------7---*10---*9---------7---9 ---7---------7---*10---*10---*9---*9 ---
E ----------0-0-0----------------0-0-0--------------0-0-0-----------*12--------*10---

E ---------------------------------------------------------------------------------
B ---------------------------------------------------------------------------------
G -11---9---------9--------------------9---11---9---------9------------------------
D -11---9---------9---*9 ---*7---------9---11---9---------9---*9 ------------------
A -9 ---7---------7---*10---*9---------7---9 ---7---------7---*10---*10------*9 ---
E ----------0-0-0----------------0-0-0--------------0-0-0-----------*12------*10---

Riff 7

E -----------1---------------------------0-1--0-------------------------1-----------------
B ------------------1-----------------------------0----------------------------1----------
G -------------------------2--------------------------0-------------------------------2---
D -3---------------------------2--------------------------2---3---------------------------
A -3---------------------------2------------------------------3---------------------------
E -1---------------------------0------------------------------1---------------------------

E -----------------------------------------
B -----------------------------------------
G -----------------------------------------
D -2---0---4-2-0-------2---0---4-2-0-------
A -2---0---------6-3-0-2---0---------6-3-0-
E -----------------------------------------

Riff 8

E -------------------------------------------------
B -------------------------------------------------
G -7-9-9-9-9-9-7-9-9-9-9-9-7-9-9-9-9-9-7-9-9-9-9-9-
D -7-9-9-9-9-9-7-9-9-9-9-9-7-9-9-9-9-9-7-9-9-9-9-9-
A -5-7-7-7-7-7-5-7-7-7-7-7-5-7-7-7-7-7-5-7-7-7-7-7-
E -------------------------------------------------

Order

Riff 1/1A x 1
Riff 1B/1C x 1
Riff 2 x 1
Riff 1B/1C x 1
Riff 2 x 1
Riff 3 x 5
Riff 4 x 2
Riff 3 x 2
Riff 4 x 4
Riff 5 x 2
Riff 6 x 2
Riff 5 x 2
Riff 6 x 2
Riff 7 x 2
Riff 1/1A x 1
Riff 1B/1C x 1
Riff 2 x 1
Riff 8 x 1
Riff 3 x 4
Riff 4 x 4
Riff 7 x 2

Tabbed by Radiohater
    	
fixar
fixar inscrever-se

enviado porenviado por: anônimo
cifra enviadaCorrigida por: sem correções
logo top cifrasComente
ico música do artistaMúsicas deste artista
ico curtiuCurtiu?
ico destaqueDestaque
Petaxxon Comunicação Online

Cifras.com.br - Melhor e mais completo site de cifras e tablaturas do Brasil Mais de 1 milhão de acordes de músicas cadastradas desde 2003
As informações contidas no nosso site são colaborações de seus usuários e podem conter erros, sendo assim, não nos responsabilizamos sobre nenhuma destas.

close
menos
mais
close
Cor dos acordes:

Cor da letra:

close
Alinhar acordes a direita Alinhar acordes a esquerda Alinhar acordes em baixo Alinhar acordes no topo
close
  Mostrar todos os acordes Esconder acordes muito fáceis Esconder acordes fáceis Esconder acordes intermediários
redimensionar
glossário