Cifras e Tablaturas
Impaled

Impaled

Trocar

Cifras Cancelar Versão de Impressão Print

Impaled - Trocar

Tom:

  			Key
= after note = vibrato
^ after note = heavy vibrato 
\ = slide down
/ = slide up
+ = tap
h = hammer
p = pull
n = natural harmonic
s = pinching harmonic (squeal)
* = tremolo pick
t = trill
b = bend
|-3-| = triplet

n number above the tab = play the first part then the first finishing part
			 play the first part a second time and then play the second finishing part
			 etc.

Tune Down 2 1/2 Steps

Riff 1

B  -----------------------------------------------------
F# -----------------------------------------------------
D  -----------------------------------------------------
A  --------2-4----5-------5-7--------2-4----5-------5-7-
E  ----4-------2----5---5--------4-------2----5---5-----
B  -2----2------------3-------2----2------------3-------

Riff 2

B  ---------------------------------------------------------
F# ---------------------------------------------------------
D  ---------------------------------------------------------
A  -4-4----4-4----3-3----3-3----4-4----4-4------------------
E  -4-4----4-4----3-3----3-3----4-4----4-4----5------4------
B  -2-2--0-2-2--0-1-1--0-1-1--0-2-2--0-2-2--0----6-5----5-4-

Riff 2A

B  ---------------------------------------------------------
F# ---------------------------------------------------------
D  ---------------------------------------------------------
A  -4------4------3------3------4------4--------------------
E  -4------4------3------3------4------4------5------4------
B  -2--2-2-2--2-2-1--1-1-1--1-1-2--2-2-2--2-2----6-5----5-4-

Riff 2B

B  --------------------------------------------------------
F# --------------------------------------------------------
D  --------------------------------------------------------
A  -4------4------3------3------4------4------5------4-----
E  -4------4------3------3------4------4---------6-5----4--
B  -2--2-2-2--2-2-1--1-1-1--1-1-2--2-2-2--2-2--------------

Riff 2C

B  ---------------------------------------------------------
F# ---------------------------------------------------------
D  ---------------------------------------------------------
A  -4-4----4-4----3-3----3-3----4-4----4-4----5------4------
E  -4-4----4-4----3-3----3-3----4-4----4-4-------6-5----5-4-
B  -2-2--0-2-2--0-1-1--0-1-1--0-2-2--0-2-2--0---------------

Riff 3

B  ---------------------------------------------------------------------------------------------
F# ---------------------------------------------------------------------------------------------
D  ---------------------------------------------------------------------77-77-------77-77-77-77-
A  -------------7-8-77-77-------------88-88-55-55-------------7-8-77-77-------88-88-------------
E  -55-55-55-55-----------66-66-66-66-------------55-55-55-55-----------------------------------
B  ---------------------------------------------------------------------------------------------

B  ---------------------------------------------------------------------------------------------
F# ---------------------------------------------------------------------------------------------
D  ---------------------------------------------------------------------------------------------
A  -------------7-8-77-77-------------88-88-55-55-------------7-8-77-77-------------------------
E  -55-55-55-55-----------66-66-66-66-------------55-55-55-55-----------------88-88-77-77-44-44-
B  ---------------------------------------------------------------------66-66-------------------

Riff 4

B  ------------------------------
F# ------------------------------
D  ------------------------------
A  -4------3------4----------7-9-
E  -4--4-0-3--2---4--4-0---5-----
B  -2------1----3-2------3-------

Fill 1

B  -------------------------
F# -------------------------
D  -------------------------
A  -4-4-4-4-4-4-4-4-4-4-4-4-
E  -4-4-4-4-4-4-4-4-4-4-4-4-
B  -2-2-2-2-2-2-2-2-2-2-2-2-

Riff 5

B  ---------------------------------------
F# ---------------------------------------
D  --------7-6--------4------7-6----------
A  -4------7-6-3------4-5-4--7-6----7--7--
E  -4------5-4-3------2-5-4--5-4-5--------
B  -2--2-2-----1--1-1---3-2---------------


Riff 5

B  -------------------------------------
F# -------------------------------------
D  ------4-------4-------4--------------
A  -4----4--4----4--4----4--5-5-5-5-5-5-
E  -4----2--4----2--4----2--5-5-5-5-5-5-
B  -2-------2-------2-------3-3-3-3-3-3-

Riff 5A

B  --------------------------------
F# --------------------------------
D  --------------------------------
A  -4------------------5-5-5-5-5-5-
E  -4------------------5-5-5-5-5-5-
B  -2------------------3-3-3-3-3-3-

Riff 6

B  -------------------------------------------------------------
F# -------------------------------------------------------------
D  -------------------------------------------------------------
A  ---------------------2-4-------------------------------------
E  -----4---2-5-----4-0---------4---2-5-------------55-44-------
B  -2-2---2-----2-2---------2-2---2-----33-33-33-33-------55-55-

Riff 7

B  ---------------------------------------------------------
F# ---------------------------------------------------------
D  -7-7--7-----------------------------5-5--5---------------
A  -7-7--7-8-8--8-3-4--4-3-4--4-7-7----5-5--5-3-4--4-3-4--4-
E  -5-5--5-8-8--8-3-4--4-3-4--4-7-7----3-3--3-3-4--4-3-4--4-
B  --------6-6--6-1-2--2-1-2--2-5-5--0--------1-2--2-1-2--2-

Riff 8

B  -------------------------------
F# -------------------------------
D  ------3----6--------9-7--------
A  -4--4-3-3--6-7------9-7---8-11-
E  -4--4-1-3--4-7------7-5---8-11-
B  -2--2---1----5--5-5-----0-6-9 -

Riff 9

B  -------------------------------------
F# -------------------------------------
D  -------------------8--------9--------
A  -4--------3--------6--------7--------
E  -4--------3--------4--------5--------
B  -2--------1--------------------------

Riff 10

B  ---------------------------------------------------------------
F# ---------------------------------------------------------------
D  ---------------------------------------------------------------
A  -5----4------3------4-----------5----4------3------4-----------
E  -5----4------3------4--------s4-5----4------3------4--------s3-
B  -3--0-2--0-0-1--0-0-2--0-2h5----3--0-2--0-0-1--0-0-2--0-2h5----

Riff 10A

B  ---------------------------
F# ---------------------------
D  ---------------------------
A  ---------------------------
E  ---------------------------
B  -3-b5-3-2--3----1----2-----

Riff 10B

B  ----------------------------
F# ----------------------------
D  ----------------------------
A  ----------------------------
E  ----------------------------
B  -7-b8-7-6--7-6-5--6-5-6-----

Order

Riff 1 x 5
Riff 2 x 2
Riff 2A/2B x 2
Riff 3 x 2
Riff 4 x 4
Riff 2/2C x 4
Fill 1 x 1
Riff 5 x 4
Riff 5A x 2
Riff 5B x 2
Riff 6 x 4
Riff 7 x 4
Riff 8 x 10
Riff 9 x 2
Solo over Riff 9 x 4
Riff 1 x 9
Riff 7 x 4
Riff 4 x 4
Riff 10 x 2
Riff 10A/10B x 4
Riff 10 until fade

Tabbed by Radiohater 2003

    	
fixar
fixar inscrever-se

enviado porenviado por: anônimo
cifra enviadaCorrigida por: sem correções
logo top cifrasComente
ico música do artistaMúsicas deste artista
ico curtiuCurtiu?
ico destaqueDestaque
Petaxxon Comunicação Online

Cifras.com.br - Melhor e mais completo site de cifras e tablaturas do Brasil Mais de 1 milhão de acordes de músicas cadastradas desde 2003
As informações contidas no nosso site são colaborações de seus usuários e podem conter erros, sendo assim, não nos responsabilizamos sobre nenhuma destas.

close
menos
mais
close
Cor dos acordes:

Cor da letra:

close
Alinhar acordes a direita Alinhar acordes a esquerda Alinhar acordes em baixo Alinhar acordes no topo
close
  Mostrar todos os acordes Esconder acordes muito fáceis Esconder acordes fáceis Esconder acordes intermediários
redimensionar
glossário