Cifras e Tablaturas
In Flames

In Flames

Embody The Invisible (ver. 1)

Cifras Cancelar Versão de Impressão Print

In Flames - Embody The Invisible (ver. 1)

Tom:

  			Key
= after note = vibrato
^ after note = heavy vibrato 
\ = slide down
/ = slide up
+ = tap
h = hammer
p = pull
n = natural harmonic
s = pinching harmonic (squeal)
* = tremolo pick
t = trill
b = bend
|-3-| = triplet

n number above the tab = play the first part then the first finishing part
			 play the first part a second time and then play the second finishing part
			 etc.

Tune Down 2 Steps

Riff 1

C  -----------------------------------------------------------------------------------------------------------------
G  -----------------------------------------------------------------------------------------------------------------
Eb ------4--4-4-5--5-5----------2--2-9--9-9-5--5-5-7--7-7-7------4--4-4-5--5-5----------2--2-9--9-9-5--5-5-7--7-7-7-
Bb -2--2-4--4-4-5--5-5-5--5-5-5-2--2-9--9-9-5--5-5-7--7-7-7-2--2-4--4-4-5--5-5-5--5-5-5-2--2-9--9-9-5--5-5-7--7-7-7-
F  -2--2-2--2-2-3--3-3-5--5-5-5-0--0-7--7-7-3--3-3-5--5-5-5-2--2-2--2-2-3--3-3-5--5-5-5-0--0-7--7-7-3--3-3-5--5-5-5-
C  -0--0---------------3--3-3-3-----------------------------0--0---------------3--3-3-3-----------------------------

Riff 1A

C  -3---2-----0-------------------------------------3---2-----0-------------------------------------
G  --------3-----3-1-0-----1-0----------------3------------3-----3-1-0-----1-0----------------------
Eb ----------------------------2-4--0--0--2-4----------------------------------2-4--0--0--2-0-------
Bb -------------------------------------------------------------------------------------------4-----
F  -------------------------------------------------------------------------------------------------
C  -------------------------------------------------------------------------------------------------

Riff 1B

C  -7---5-------------------------------------------7---5-------------------------------------------
G  --------7--8--7-5---------------------------------------7--8--7-5--------------------------------
Eb ------------------7-----2-----------------------------------------7-----2------------------------
Bb --------------------------5-4-5--2--2--4-5-4------------------------------5-4-5--2--2--4-5-4-----
F  -------------------------------------------------------------------------------------------------
C  -------------------------------------------------------------------------------------------------

Riff 1C

C  -15---14------12-------------------------------------------------15---14------12---------------
G  ----------15------15-13-12-----13-12----12-------------12-15--------------15------15-13-12-----
Eb -------------------------------------14-----12--12--14-----------------------------------------
Bb -----------------------------------------------------------------------------------------------
F  -----------------------------------------------------------------------------------------------
C  -----------------------------------------------------------------------------------------------

C  -----------------------------------
G  -13-12----12-----------------------
Eb -------14-----12--12--14-12-11-----
Bb -----------------------------------
F  -----------------------------------
C  -----------------------------------

Riff 2

C  ----------------------------------------------------
G  ----------------------------------------------------
Eb -----9-----7-9--9----------9------------------------
Bb -----9-----7-9--9----------9----------0-------------
F  -----7-----5-7--7----------7------------------5-7-5-
C  -0-0-0-----------------0-0-0------0-3---3-5-7-------

Riff 2A

C  -----------------------------------------------------------------
G  -----------------------------------------------------------------
Eb -----9---------7-9---9---------------9---------------------------
Bb -----9---------7-9---9---------------9-------------0-------------
F  -----7---------5-7---7---------------7---------------------5-7-5-
C  -0-0-0-0-0-0-0---0-0-0-0-0-0-0-0-0-0-0-0-0-0-0-0-3---3-5-7-------

Riff 3

C  -------------------------------------------------------------------------------------------
G  -------------------------------------------------------------------------------------------
Eb -4--4-4---------4--4-4-7-7-7-7----------2--------4-2-0-2-----4--4-4---------4--4-4-7-7-7-7-
Bb -4--4-4-4-4-4-4-4--4-4-7-7-7-7----2-4-5---5-4------------4-5-4--4-4-4-4-4-4-4--4-4-7-7-7-7-
F  -2--2-2-4-4-4-4-2--2-2-5-5-5-5-------------------------------2--2-2-4-4-4-4-2--2-2-5-5-5-5-
C  --------2-2-2-2----------------0--------------0---------------------2-2-2-2----------------

C  -------------------------------
G  -------------------------------
Eb -------------------------------
Bb -5----4---5-4-2-2--2-2-4--4-4--
F  -------------------------------
C  ----0---0----------------------

Riff 3A

C  -------------------------------------------------------------------------------------------
G  -------------------------------------------------3-----------------------------------------
Eb --------2-4-2----------2-4-2-0----0-2-4-5-2-4------5-4-5-2-4--------2-4-2----------2-4-2-0-
Bb -4--4-4-------2-4--4-4---------------------------------------4--4-4-------2-4--4-4---------
F  -------------------------------------------------------------------------------------------
C  -------------------------------0--------------0--------------------------------------------

C  --------------------------------
G  --------------------------------
Eb -5----4----2-0---0--0-0-2--2-2--
Bb --------------------------------
F  --------------------------------
C  ----0----0-----0----------------

Riff 4

C  ---------------------------------
G  ---------------------------------
Eb -----------------9-9-9-9-9-9-9-9-
Bb -4-4-4-4-4-4-4-4-9-9-9-9-9-9-9-9-
F  -4-4-4-4-4-4-4-4-7-7-7-7-7-7-7-7-
C  -2-2-2-2-2-2-2-2-----------------

Riff 5

C  -----------------------------------------------------------------------------------------------------------------
G  -----------------------------------------------------------------------------------------------------------------
Eb ---------9-9-9-9-12-12-12-12-7-7-7-7---------9-9-9-9-10-10-10-10---------------------9-9-9-9-12-12-12-12-7-7-7-7-
Bb -7-7-7-7-9-9-9-9-12-12-12-12-7-7-7-7-7-7-7-7-9-9-9-9-10-10-10-10-10-10-10-10-7-7-7-7-9-9-9-9-12-12-12-12-7-7-7-7-
F  -7-7-7-7-7-7-7-7-10-10-10-10-5-5-5-5-7-7-7-7-7-7-7-7-8 -8 -8 -8 -10-10-10-10-7-7-7-7-7-7-7-7-10-10-10-10-5-5-5-5-
C  -5-5-5-5-----------------------------5-5-5-5---------------------8 -8 -8 -8 -5-5-5-5-----------------------------

C  -----------------
G  -----------------
Eb -5-5-5-5-5-5-5-5-
Bb -5-5-5-5-5-5-5-5-
F  -3-3-3-3-3-3-3-3-
C  -----------------

Riff 5A

C  -----------------------------------------------------------------------------------------------------------------
G  -----------------------------------------------------------------------------------------------------------------
Eb -5---5---4---4---7---7---5---5---5---5---4-5-4-5-5---5---7---7-7-5---5---4---4---7---7---5---5---5-5-5-5-5-5-5-5-
Bb ---7---7---5---5---9---9---7---7---7---7-----------3---3---5-------7---7---5---5---9---9---7---7-5-5-5-5-5-5-5-5-
F  -------------------------------------------------------------------------------------------------3-3-3-3-3-3-3-3-
C  -----------------------------------------------------------------------------------------------------------------

Riff 6

C  -------------------------------------------------------------------------------------------------
G  -------------------------------------------------------------------------------------------------
Eb -9-9-9-9---------7-7-7-7---------9-9-9-9---------5-5-5-5-7-7-7-7-9-9-9-9---------7-7-7-7---------
Bb -9-9-9-9-9-9-9-9-7-7-7-7-7-7-7-7-9-9-9-9-9-9-9-9-5-5-5-5-7-7-7-7-9-9-9-9-9-9-9-9-7-7-7-7-7-7-7-7-
F  -7-7-7-7-9-9-9-9-5-5-5-5-7-7-7-7-7-7-7-7-9-9-9-9-3-3-3-3-5-5-5-5-7-7-7-7-9-9-9-9-5-5-5-5-7-7-7-7-
C  ---------7-7-7-7---------5-5-5-5---------7-7-7-7-------------------------7-7-7-7---------5-5-5-5-

C  ---------------------------------
G  ---------------------------------
Eb ---------------------------------
Bb -5-5-5-5-5-5-5-5-9-9-9-9-9-9-9-9-
F  -5-5-5-5-5-5-5-5-9-9-9-9-9-9-9-9-
C  -3-3-3-3-3-3-3-3-7-7-7-7-7-7-7-7-

Riff 6A

C  -----------------------------------------------------------------------------------------------------------
G  -----------------------------------------------------------------------------------------------------------
Eb -----------------------------------0-2-4--4-4-5--5-4-2-----------------------------------------------------
Bb -5----4--4-5-7--5-4-5-4h5p4-2-0-2-----------------------5-4-5----4--4-5-7--5-4-5-4-2---0--------4---2---0--
F  -------------------------------------------------------------------------------------4---------------------
C  -----------------------------------------------------------------------------------------------------------

Riff 7

C  ---------------------------------------------------------
G  ---------------------------------------------------------
Eb ---------------------------------------------------------
Bb -9--9-9--5-5-5-7--7-7--4-4-4-5--5-5--2-2-2-4--4-4--4-4-4-
F  -9--9-9--5-5-5-7--7-7--4-4-4-5--5-5--2-2-2-4--4-4--4-4-4-
C  -7--7-7--3-3-3-5--5-5--2-2-2-3--3-3--0-0-0-2--2-2--2-2-2-

Riff 7A

C  --------------------------------------------------------------------------------------14-
G  -12-----12-14-15-14-12-14--------12-14-12-10-12-----12-14-15-14-12-11-----11-12-14-------
Eb -----11--------------------14-14-----------------12-------------------11-----------11----
Bb -----------------------------------------------------------------------------------------
F  -----------------------------------------------------------------------------------------
C  -----------------------------------------------------------------------------------------

Riff 7B

C  -----------------------------------------------------------------------------------------
G  -----------------------------------------------------------------------------------------
Eb --------------------------------------------------------------------------------------11-
Bb -12-----12-14-16-14-12-14--11-11-12-14-12-11-12-----12-14-16-14-12-11-----11----14-------
F  -----14------------------------------------------14--------------------13----13----13----
C  -----------------------------------------------------------------------------------------

Riff 7C

C  -------------------------------------------------------------------------
G  -------------------------------------------------------------------------
Eb -------------------------------------------------------------------------
Bb -9--9-9--5-5-5-7--7-7--4-4-4-5--5-5--2-2-2-4--4-4--4-4-4-4--4-4--4-4-4-4-
F  -9--9-9--5-5-5-7--7-7--4-4-4-5--5-5--2-2-2-4--4-4--4-4-4-4--4-4--4-4-4-4-
C  -7--7-7--3-3-3-5--5-5--2-2-2-3--3-3--0-0-0-2--2-2--2-2-2-2--2-2--2-2-2-2-

Riff 7D

C  --------------------------------------------------------------------------------------14--------------------14----
G  -12-----12-14-15-14-12-14--------12-14-12-10-12-----12-14-15-14-12-11-----11-12-14-------11-----11-12-14----------
Eb -----11--------------------14-14-----------------12-------------------11-----------11--------11----------11----11-
Bb ------------------------------------------------------------------------------------------------------------------
F  ------------------------------------------------------------------------------------------------------------------
C  ------------------------------------------------------------------------------------------------------------------

Riff 7E

C  ---------------------------------------------------------------------------------------------------------------
G  ---------------------------------------------------------------------------------------------------------------
Eb --------------------------------------------------------------------------------------11--------------------11-
Bb -12-----12-14-16-14-12-14--11-11-12-14-12-11-12-----12-14-16-14-12-11-----11----14-------11-----11----14-------
F  -----14------------------------------------------14--------------------13----13----13--------13----13----13----
C  ---------------------------------------------------------------------------------------------------------------

Riff 8

C  ---------------------------------------------------------------------------------------------
G  ---------------------------------------------------------------------------------------------
Eb ---------------------------------------------------------------------------------------------
Bb ---------------------------------------------------------------------------------------------
F  -------------------------------------------------------------------------------------------5-
C  -7-----3---5-----2---3-----0---2-----3--5-7-----3---5-----2---3-----0---2-----0---2-----7----

Riff 9

C  ---------------------------------------------------------
G  ---------------------------------------------------------
Eb -9--9-9--5-5-5-7--7-7--4-4-4-5--5-5--2-2-2-4--4-4--4-4-4-
Bb -9--9-9--5-5-5-7--7-7--4-4-4-5--5-5--2-2-2-4--4-4--4-4-4-
F  -7--7-7--3-3-3-5--5-5--2-2-2-3--3-3--0-0-0-2--2-2--2-2-2-
C  ---------------------------------------------------------

Riff 9A

C  -----------------------------------------------------------------------------
G  --------------------------------------------------------------------------12-
Eb -9----9-11-12-11-9-11-----9-11-12-11----9-----9-11-12-11-9-8----8-11-12------
Bb ----9------------------12------------12----10-----------------9---------9----
F  -----------------------------------------------------------------------------
C  -----------------------------------------------------------------------------

Riff 9B

C  --------------------------------------------------------------------------11-
G  -8----8-10-12-10-8-10--------10-12-10----------8-10-12-10-8-7----7-8-10------
Eb ----9------------------11-11----------11-12--9-----------------8--------8----
Bb -----------------------------------------------------------------------------
F  -----------------------------------------------------------------------------
C  -----------------------------------------------------------------------------

Riff 9C

C  ---------------------------------------------------------------------------------------
G  ---------------------------------------------------------------------------------------
Eb -9--9-9--5-5-5-7--7-7--4-4-4-5--5-5--2-2-2-4--4-4--5-5-7-4--4-4--5-5-7-4--4-4--5-5-7-9-
Bb -9--9-9--5-5-5-7--7-7--4-4-4-5--5-5--2-2-2-4--4-4--5-5-7-4--4-4--5-5-7-4--4-4--5-5-7-9-
F  -7--7-7--3-3-3-5--5-5--2-2-2-3--3-3--0-0-0-2--2-2--3-3-5-2--2-2--3-3-5-2--2-2--3-3-5-7-
C  ---------------------------------------------------------------------------------------

Riff 9D

C  ------------------------------------------------------------------------------------------------------------------
G  --------------------------------------------------------------------------12----------------12--------------------
Eb -9----9-11-12-11-9-11-----9-11-12-11----9-----9-11-12-11-9-8----8-11-12------8----8-11-12------8----8---12-11-8-9-
Bb ----9------------------12------------12----10-----------------9---------9-------9---------9-------9---9-----------
F  ------------------------------------------------------------------------------------------------------------------
C  ------------------------------------------------------------------------------------------------------------------

Riff 9E

C  --------------------------------------------------------------------------11---------------11----------7--------
G  -8----8-10-12-10-8-10--------10-12-10----------8-10-12-10-8-7----7-8-10------7----7-8-10------7----7-----10-7-8-
Eb ----9------------------11-11----------11-12--9-----------------8--------8-------8--------8-------8---8----------
Bb ----------------------------------------------------------------------------------------------------------------
F  ----------------------------------------------------------------------------------------------------------------
C  ----------------------------------------------------------------------------------------------------------------

Order

Riff 1/1A x 1
Riff 1/1A/1B x 1
Riff 2 x 2
Riff 1/1A x 1
Riff 2 x 2
Riff 3/3A x 1
Riff 4 x 1
Riff 5/5A x 1
Riff 6/6A x 2
Solo over Riff 2 x 2
Riff 7/7A x 2
Riff 7/7A/7B x 1
Riff 7C/7D/7E x 1
Riff 1/1C x 1
Riff 2A x 2
Riff 3/3A x 1
Riff 5/5A x 1
Riff 6/6A x 2
Riff 8 x 1
Riff 9/9A/9B x 1
Riff 9C/9D/9E x 1

Tabbed by Radiohater 2002

    	
fixar
fixar inscrever-se

enviado porenviado por: anônimo
cifra enviadaCorrigida por: sem correções
logo top cifrasComente
ico música do artistaMúsicas deste artista
ico curtiuCurtiu?
ico destaqueDestaque
Petaxxon Comunicação Online

Cifras.com.br - Melhor e mais completo site de cifras e tablaturas do Brasil Mais de 1 milhão de acordes de músicas cadastradas desde 2003
As informações contidas no nosso site são colaborações de seus usuários e podem conter erros, sendo assim, não nos responsabilizamos sobre nenhuma destas.

close
menos
mais
close
Cor dos acordes:

Cor da letra:

close
Alinhar acordes a direita Alinhar acordes a esquerda Alinhar acordes em baixo Alinhar acordes no topo
close
  Mostrar todos os acordes Esconder acordes muito fáceis Esconder acordes fáceis Esconder acordes intermediários
redimensionar
glossário