Cifras e Tablaturas
In Flames

In Flames

Take This Life

Cifras Cancelar Versão de Impressão Print

In Flames - Take This Life

Tom:

  			  Intro 
E-------------------------------------| 
B-------------------------------------| 
G-------------------------------------| Repeat 2x 
D-------------------------------------| 
A---4---4---4---4---4---4---4---4---4-| 
E-3---3---3---3---3---3---3---3---3---| 

  Verse 
E-----------------------------------------------------7-9-| 
B-------------------------------------------------7-9-----| 
G---------------------------------------------7-9---------| 
D-----------------------------------------7-9-------------| 
A-2-2-2---4---4---4---4---4-----------7-9-----------------| 
E-0-0-0-3---3---3---3---3---3---3-7-9---------------------| 

  Bridge 
E---------------8-9-10-| 
B-----------8-7--------| 
G-------6-5------------| 
D-7-9-6----------------| 
A----------------------| 
E----------------------| 

  Chorus 
E-----------------------| 
B-----------------------| 
G-----------------------| 
D-2-2-2---------2-2-2-2-| 
A-2-2-2-3-3-3-3-0-0-0-0-| 
E-0-0-0-1-1-1-1---------| 
    	
fixar
fixar inscrever-se

enviado porenviado por: Indestructible
cifra enviadaCorrigida por: sem correções
logo top cifrasComente
ico música do artistaMúsicas deste artista
ico curtiuCurtiu?
ico destaqueDestaque
Petaxxon Comunicação Online

Cifras.com.br - Melhor e mais completo site de cifras e tablaturas do Brasil Mais de 1 milhão de acordes de músicas cadastradas desde 2003
As informações contidas no nosso site são colaborações de seus usuários e podem conter erros, sendo assim, não nos responsabilizamos sobre nenhuma destas.

close
menos
mais
close
Cor dos acordes:

Cor da letra:

close
Alinhar acordes a direita Alinhar acordes a esquerda Alinhar acordes em baixo Alinhar acordes no topo
close
  Mostrar todos os acordes Esconder acordes muito fáceis Esconder acordes fáceis Esconder acordes intermediários
redimensionar
glossário