Cifras e Tablaturas
Incubus

Incubus

Familiar Faces

Cifras Cancelar Versão de Impressão
cifras

Incubus - Familiar Faces

fixar na tela  
Exibindo: vídeo-aula ver clipes redimensionar

Tom:

  
TUNING 1/2 STEP DOWN 

Intro 

E|-----------------------------------------------| 
B|-----------------------------------------------| 
G|-----------------------------------------------| 
D|--------------------------------------7--------| 
A|----------------9---------------0-----------5--| 
E|--2/10--10--10-----10--10--5/7-----7-----7-----| (x2) 

E|--14--------------14------------------14--------------14------------------14--------------14--------------| 
B|------15------15------15------15----------15------15------15------15----------15------15------15------15--| 
G|----------16--------------16------------------16--------------16------14----------16--------------16------| 
D|----------------------------------16----------------------------------------------------------------------| 
A|----------------------------------------------------------------------------------------------------------| 
E|----------------------------------------------------------------------------------------------------------| 

E|------14--------------12----------12------| 
B|----------15------15------12----------14--| 
G|--------------16--------------13----------| 
D|--16--------------------------------------| 
A|------------------------------------------| 
E|------------------------------------------| 


verse 1 

E|--------------------------------------------------------------------------------------------------------| 
B|--------------------------------------------------------------------------------------------------------| 
G|------12--------------7---------------12--------------7------------11-------------12--------------7-----| 
D|--------------------------------------------------------------------------------------------------------| 
A|--------------------------------------------------------------------------------------------------------| 
E|--12------12--5/7--7-----7--5/12--12------12--5/7--7-----7/10--10------10/12--12------12--5/7--7-----7--| 

E|----------------------------------------------| 
B|----------------------------------------------| 
G|----------------------------------------------| 
D|----------2--0--0--2--0--0--2--0--2--4--2--0--| 
A|----------------------------------------------| 
E|--2/3--3--------------------------------------| 

E|------------------------------------------------------------------------------------------------| 
B|------------------------------------------------------------------------------------------------| 
G|------12--------------7---------------12--------------7------------11-------------12-----12-----| 
D|------------------------------------------------------------------------------------------------| 
A|------------------------------------------------------------------------------------------------| 
E|--12------12--5/7--7-----7--5/12--12------12--5/7--7-----7/10--10------10/12--12------12----12--| 

E|--------------------------------------------------------------------| 
B|-----------7-----7--------10--------10----------12----------12------| 
G|-----7------------------------------------------------------12------| 
D|--------7-----7-----------------------------------------------------| 
A|--------------------9--9------9--9------10--10------10--10----------| 
E|--7-----------------------------------------------------------------| 



Chorus 

E|--14--------------14------------------14--------------14------------------14--------------14--------------| 
B|------15------15------15------15----------15------15------15------15----------15------15------15------15--| 
G|----------16--------------16------------------16--------------16------14----------16--------------16------| 
D|----------------------------------16----------------------------------------------------------------------| 
A|----------------------------------------------------------------------------------------------------------| 
E|----------------------------------------------------------------------------------------------------------| 


E|------14--------------12----------12------| 
B|----------15------15------12----------14--| 
G|--------------16--------------13----------| 
D|--16--------------------------------------| 
A|------------------------------------------| 
E|------------------------------------------| 


verse 2 

E|--------------------------------------------------------------------------------------------------------| 
B|--------------------------------------------------------------------------------------------------------| 
G|------12--------------7---------------12--------------7------------11-------------12--------------7-----| 
D|--------------------------------------------------------------------------------------------------------| 
A|--------------------------------------------------------------------------------------------------------| 
E|--12------12--5/7--7-----7--5/12--12------12--5/7--7-----7/10--10------10/12--12------12--5/7--7-----7--| 

E|----------------------------------------------| 
B|----------------------------------------------| 
G|----------------------------------------------| 
D|----------2--0--0--2--0--0--2--0--2--4--2--0--| 
A|----------------------------------------------| 
E|--2/3--3--------------------------------------| 



Chorus 

E|--14--------------14------------------14--------------14------------------14--------------14--------------| 
B|------15------15------15------15----------15------15------15------15----------15------15------15------15--| 
G|----------16--------------16------------------16--------------16------14----------16--------------16------| 
D|----------------------------------16----------------------------------------------------------------------| 
A|----------------------------------------------------------------------------------------------------------| 
E|----------------------------------------------------------------------------------------------------------| 

E|------14--------------12----------12------| 
B|----------15------15------12----------14--| 
G|--------------16--------------13----------| 
D|--16--------------------------------------| 
A|------------------------------------------| 
E|------------------------------------------| 


Bridge 

E|------------0--------------------------------------| 
B|--3-X-3-X-3---2-X-2-X-2-3--0-X-0-X-0-2-3-2-0-0-0---| 
G|--2-X-2-X-2---2-X-2-X-2----0-X-0-X-0-0-0-0-0-0-0---| 
D|--0-X-0-X-0---2-X-2-X-2----0-X-0-X-0-0-0-0-0-0-0---| 
A|---------------------------X-X-X-X-X---------------| 
E|---------------------------3-X-3-X-3---------------| 



Chorus 

E|--14--------------14------------------14--------------14------------------14--------------14--------------| 
B|------15------15------15------15----------15------15------15------15----------15------15------15------15--| 
G|----------16--------------16------------------16--------------16------14----------16--------------16------| 
D|----------------------------------16----------------------------------------------------------------------| 
A|----------------------------------------------------------------------------------------------------------| 
E|----------------------------------------------------------------------------------------------------------| 

E|------14--------------12----------12------| 
B|----------15------15------12----------14--| 
G|--------------16--------------13----------| 
D|--16--------------------------------------| 
A|------------------------------------------| 
E|------------------------------------------| 


**************************** 
/    slide up 
X    dead note 
****************************  
  

top 5 | incubus
top rock alternativo
Outras músicas do artista letras do(a) Incubus
5.
Dig
Top cifras »Top artistas »
Petaxxon Comunicação Online
Cifras.com.br - Melhor e mais completo site de cifras e tablaturas do Brasil
Mais de 1 milhão de acordes de músicas cadastradas desde 2003
As informações contidas no nosso site são colaborações de seus usuários e podem conter erros, sendo assim, não nos responsabilizamos sobre nenhuma destas.
close
menos
mais
close
Cor dos acordes:

Cor da letra:

 

save
close
close
 
redimensionar