Cifras e Tablaturas
India.Arie

India.Arie

I Am Light

Cifras Cancelar Versão de Impressão

India.Arie - I Am Light

Tom: D

  			
Intro 
  D                                G                       Gsus2 
e|------0h2-------------0h2-------|--------------------------------| 
B|----3---------------3-----3-----|------3---------------3-------3-| 
G|--2-----------2---2---------2---|----0-----0---0-----0-------0---| 
D|0---------------0-------------0-|--0---------0-----0-------0-----| x3 
A|--------------------------------|----------------2-------0-------| 
E|--------------------------------|3-------------------------------| 
  `   `   `   `   `   `   `   `    `   `   `   `   `   `   `   ` 

  D                                G               A                A 
e|------0h2-------------0h2-------|--------------------------------|--------------------------------| 
B|----3---------------3-----3-----|------3---------------2---------|2-------------------------------| 
G|--2-----------2---2---------2---|----0---0-----------2---2-------|2-------------------------------| 
D|0---------------0-------------0-|--0-------0---0---2-------2---2-|2-------------------------------| 
A|--------------------------------|----------------0-----------0---|--------------------------------| 
E|--------------------------------|3-----------3-------------------|--------------------------------| 
  `   `   `   `   `   `   `   `    `   `   `   `   `   `   `   `    `   `   `   `   `   `   `   `  

Chorus 
  D                                G                       Gsus2 
e|------2---------------2---------|--------------------------------| 
B|----3-----3---------3-----3-----|------3---------------3-------3-| 
G|--2-----------2---2-----------2-|----0---0-----------0-------0---| 
D|0---------------0---------------|--0-------0---0---0-------0-----| x3 
A|--------------------------------|----------------2-------0-------| 
E|--------------------------------|3-----------3-------------------| 
  `   `   `   `   `   `   `   `    `   `   `   `   `   `   `   ` 
  I     am       light I am light 

  D                                G               A                A 
e|------2---------------2---------|--------------------------------|--------------------------------| 
B|----3-----3---------3-----3-----|------3---------------2---------|2-------------------------------| 
G|--2-----------2---2-----------2-|----0---0-----------2---2-------|2-------------------------------| 
D|0---------------0---------------|--0-------0---0---2-------2---2-|2-------------------------------| 
A|--------------------------------|----------------0-----------0---|--------------------------------| 
E|--------------------------------|3-----------3-------------------|--------------------------------| 
  `   `   `   `   `   `   `   `    `   `   `   `   `   `   `   `    `   `   `   `   `   `   `   `  
  I     am       light I am light                                                       I am not the 

Verse 
  G       A       G                G       A       D 
e|--------------------------------|----------------------2---------| 
B|------3-------2-------3---------|------3-------2-----3----3------| 
G|----0-------2-------0-----0-----|----0-------2-----2----------2--| 
D|--0-------2-------0-----------0-|--0-------2-----0---------------| 
A|--------0-------2---------------|--------0-----------------------| 
E|3-------------------------------|3-------------------------------| 
  `   `   `   `   `   `   `   `    `   `   `   `   `   `   `   `     
 things my family did, I am not the voices in my head, I am not the 

  G       A       G                Cadd9           G 
e|--------------------------------|--------------------------------| 
B|------3-------2-------3---------|------3-------------------------| 
G|----0-------2-------0---0-----0-|----0-----0---0-----------------| 
D|--0-------2-------0-------0-----|--2---------2-------------------| 
A|--------0-------2-----------2---|3---------------2---------------| 
E|3-------------------------------|--------------------------------| 
  `   `   `   `   `   `   `   `    `   `   `   `   `   `   `   `     
  pieces of the   brokenness    in-side                  I am light 

  D                                G               A                A 
e|------0h2-------------0h2-------|--------------------------------|--------------------------------| 
B|----3---------------3-----3-----|------3---------------2---------|2-------------------------------| 
G|--2-----------2---2---------2---|----0---0-----------2---2-------|2-------------------------------| 
D|0---------------0-------------0-|--0-------0---0---2-------2---2-|2-------------------------------| 
A|--------------------------------|----------------0-----------0---|--------------------------------| 
E|--------------------------------|3-----------3-------------------|--------------------------------| 
  `   `   `   `   `   `   `   `    `   `   `   `   `   `   `   `    `   `   `   `   `   `   `   `  
                                                                                    I'm not the mis 

Verse 
  G       A       G                G       A       D 
e|--------------------------------|----------------------2---------| 
B|------3-------2-------3---------|------3-------2-----3----3------| 
G|----0-------2-------0-----0-----|----0-------2-----2----------2--| 
D|--0-------2-------0-----------0-|--0-------2-----0---------------| 
A|--------0-------2---------------|--------0-----------------------| 
E|3-------------------------------|3-------------------------------| 
  `   `   `   `   `   `   `   `    `   `   `   `   `   `   `   `     
  takes that I have made, or any of things that cause me pain, I am not the 

  G       A       G                Cadd9           G 
e|--------------------------------|--------------------------------| 
B|------3-------2-------3---------|------3-------------------------| 
G|----0-------2-------0---0-----0-|----0-----0---0-----------------| 
D|--0-------2-------0-------0-----|--2---------2-------------------| 
A|--------0-------2-----------2---|3---------------2---------------| 
E|3-------------------------------|--------------------------------| 
  `   `   `   `   `   `   `   `    `   `   `   `   `   `   `   `     
  pieces of the dreams      I left behind                I am light 

  D                                G                       Gsus2 
e|------0h2-------------0h2-------|--------------------------------| 
B|----3---------------3-----3-----|------3---------------3-------3-| 
G|--2-----------2---2---------2---|----0-----0---0-----0-------0---| 
D|0---------------0-------------0-|--0---------0-----0-------0-----| 
A|--------------------------------|----------------2-------0-------| 
E|--------------------------------|3-------------------------------| 
  `   `   `   `   `   `   `   `    `   `   `   `   `   `   `   ` 

  D                                G               A                A 
e|------2---------------2---------|--------------------------------|--------------------------------| 
B|----3-----3---------3-----3-----|------3---------------2---------|2-------------------------------| 
G|--2-----------2---2-----------2-|----0---0-----------2---2-------|2-------------------------------| 
D|0---------------0---------------|--0-------0---0---2-------2---2-|2-------------------------------| 
A|--------------------------------|----------------0-----------0---|--------------------------------| 
E|--------------------------------|3-----------3-------------------|--------------------------------| 
  `   `   `   `   `   `   `   `    `   `   `   `   `   `   `   `    `   `   `   `   `   `   `   `  
  I     am       light I am light                                                       I am not the 

Verse 
  G       A       G                G       A       G                 
e|--------------------------------|--------------------------------| 
B|------3-------2-------3---------|------3-------2-------3---------| 
G|----0-------2-------0-----0-----|----0-------2-------0-----0-----| 
D|--0-------2-------0-----------0-|--0-------2-------0-----------0-| 
A|--------0-------2---------------|--------0-------2---------------| 
E|3-------------------------------|3-------------------------------| 
  `   `   `   `   `   `   `   `    `   `   `   `   `   `   `   `     
  color of my eyes,   I am not the skin on the outside, I am not my 

  G       A       D                Cadd9           G 
e|----------------------2---------|--------------------------------| 
B|------3-------2-----3----3------|------3-------------------------| 
G|----0-------2-----2----------2--|----0-----0---0-----------------| 
D|--0-------2-----0---------------|--2---------2-------------------| 
A|--------0-----------------------|3---------------2---------------| 
E|3-------------------------------|--------------------------------| 
  `   `   `   `   `   `   `   `    `   `   `   `   `   `   `   `     
  age, I am not my race,           my soul inside is       all light 

  D                                G                       Gsus2 
e|------0h2-------------0h2-------|--------------------------------| 
B|----3---------------3-----3-----|------3---------------3-------3-| 
G|--2-----------2---2---------2---|----0-----0---0-----0-------0---| 
D|0---------------0-------------0-|--0---------0-----0-------0-----| 
A|--------------------------------|----------------2-------0-------| 
E|--------------------------------|3-------------------------------| 
  `   `   `   `   `   `   `   `    `   `   `   `   `   `   `   ` 

  D                                G               A                A 
e|------2---------------2---------|--------------------------------|--------------------------------| 
B|----3-----3---------3-----3-----|------3---------------2---------|2-------------------------------| 
G|--2-----------2---2-----------2-|----0---0-----------2---2-------|2-------------------------------| 
D|0---------------0---------------|--0-------0---0---2-------2---2-|2-------------------------------| 
A|--------------------------------|----------------0-----------0---|--------------------------------| 
E|--------------------------------|3-----------3-------------------|--------------------------------| 
  `   `   `   `   `   `   `   `    `   `   `   `   `   `   `   `    `   `   `   `   `   `   `   `  
  all light                                                                             I am div- 

Verse 
  G       A       D                G       A       D                 
e|----------------------2---------|----------------------2---------| 
B|------3-------2-----3----3------|------3-------2-----3----3------| 
G|----0-------2-----2----------2--|----0-------2-----2----------2--| 
D|--0-------2-----0---------------|--0-------2-----0---------------| 
A|--------0-----------------------|--------0-----------------------| 
E|3-------------------------------|3-------------------------------| 
  `   `   `   `   `   `   `   `    `   `   `   `   `   `   `   `     
  inity defined           I am the God on the inside    I am a star 

  G       A       D                Cadd9           G 
e|----------------------2---------|--------------------------------| 
B|------3-------2-----3----3------|------3-------------------------| 
G|----0-------2-----2----------2--|----0-----0---0-----------------| 
D|--0-------2-----0---------------|--2---------2-------------------| 
A|--------0-----------------------|3---------------2---------------| 
E|3-------------------------------|--------------------------------| 
  `   `   `   `   `   `   `   `    `   `   `   `   `   `   `   `     
    a piece of it all, I            I                am light 


************************************ 

| h   hammer-on 

************************************ 
    	
fixar
fixar inscrever-se

enviado porenviado por: carlluz
cifra enviadaCorrigida por: sem correções
logo top cifrasComente
ico música do artistaMúsicas deste artista
ico curtiuCurtiu?
ico destaqueDestaque
Petaxxon Comunicação Online

Cifras.com.br - Melhor e mais completo site de cifras e tablaturas do Brasil Mais de 1 milhão de acordes de músicas cadastradas desde 2003
As informações contidas no nosso site são colaborações de seus usuários e podem conter erros, sendo assim, não nos responsabilizamos sobre nenhuma destas.

close
menos
mais
close
Cor dos acordes:

Cor da letra:

close
Alinhar acordes a direita Alinhar acordes a esquerda Alinhar acordes em baixo Alinhar acordes no topo
close
  Mostrar todos os acordes Esconder acordes muito fáceis Esconder acordes fáceis Esconder acordes intermediários
redimensionar
glossário