Cifras e Tablaturas
Inside Out

Inside Out

Sacrifice

Cifras Cancelar Versão de Impressão Print

Inside Out - Sacrifice

Tom:

  			 

Song: Sacrifice 
Artist: Inside Out 
Tabbed by: enjoyincubus69 
 
This song is easy to play, just mostly power chords. 
I've given you the chords that are used.  Just figure 
out the rhythm by listening to the CD.  Some chords are 
repeated several times so you'll have to go along with the 
CD to figure out when to repeat. 
enjoy 
Intro (x4) 
E|--------------------------------------------- 
B|--------------------------------------------- 
G|----------10--7------------------------------ 
D|-3--2-----10--7------------------------------ 
A|-3--2------8--5------------------------------ 
E|-1--0---------------------------------------- 
 
Verse (x4) 
E|--------------------------------------------- 
B|--------------------------------------------- 
G|------------------7-------------------------- 
D|-3--2----5--3-----7-------------------------- 
A|-3--2----5--3-----5-------------------------- 
E|-1--0----3--1-------------------------------- 
 
Chorus (x4) 
E|--------------------------------------------- 
B|--------------------------------------------- 
G|--------------------------------------------- 
D|-3--3--2------------------5------------------ 
A|-3--3--2------------------5---3-P-0-H-2-P-0-- 
E|-1--1--0---1-P-0-H-1-P-0--3------------------ 
 
Post Chorus (x4) 
E|--------------------------------------------- 
B|--------------------------------------------- 
G|-9-----5--7---------------------------------- 
D|-9--9--5--7--5--3--2--2---------------------- 
A|-7--9--3--5--5--3--2--2---------------------- 
E|----7--------3--1--0--0---------------------- 
 

    	
fixar
fixar inscrever-se

enviado porenviado por: anônimo
cifra enviadaCorrigida por: sem correções
logo top cifrasComente
ico música do artistaMúsicas deste artista
ico curtiuCurtiu?
ico destaqueDestaque
Petaxxon Comunicação Online

Cifras.com.br - Melhor e mais completo site de cifras e tablaturas do Brasil Mais de 1 milhão de acordes de músicas cadastradas desde 2003
As informações contidas no nosso site são colaborações de seus usuários e podem conter erros, sendo assim, não nos responsabilizamos sobre nenhuma destas.

close
menos
mais
close
Cor dos acordes:

Cor da letra:

close
Alinhar acordes a direita Alinhar acordes a esquerda Alinhar acordes em baixo Alinhar acordes no topo
close
  Mostrar todos os acordes Esconder acordes muito fáceis Esconder acordes fáceis Esconder acordes intermediários
redimensionar
glossário