Cifras e Tablaturas
Invalid Request

Invalid Request

RUNNING WATER

Cifras Cancelar Versão de Impressão Print

Invalid Request - RUNNING WATER

Tom:

  			 
This song is very distorted when play (high boost and gain and bass) {make it loud too} 
 
	INTRO 
E--0-8---0-8---0-8---8-8---7-7-7--- 
B--------------------------8-8-8---        x4 
G--------------------------------------- 
D--------------------------------------- 
A--------------------------------------- 
E--------------------------------------- 
 
	INTRO (CON?T) 
E--0-0---0-0---0-0---0-0---8-8-8---- 
B--0-0---0-0---0-0---0-0---8-8-8---- 
G--0-0---0-0---0-0---0-0---8-8-8---- 
D--0-0---0-0---0-0---0-0---8-8-8----          x4 
A--0-0---0-0---0-0---0-0---8-8-8---- 
E--0-0---0-0---0-0---0-0---8-8-8---- 
 
	END RIFF 
E--0-8---0-8---0-8---8-8---7-7-7---- 
B--0-9---0-9---0-9---9-9---8-8-8---- 
G--0-9---0-9---0-9---9-9---8-8-8---- 
D----------------------------------------         x5  {START TO GET SLOWER TOWARDS THE END} 
A----------------------------------------- 
E----------------------------------------- 
 
	END RIFF (CON?T)  
E--0-8---0-8---0-8---88---8-8-8---- 
B--------------------------------------- 
G---------------------------------------   x2 {GET REAL SLOW AND STRUM LIGHTLY THEN END}  
D--------------------------------------- 
A--------------------------------------- 
E--------------------------------------- 
 
	BASS 
E--5-5---5-5---5-5---5-5---3-3-3-- 
B-------------------------------------- 
G-------------------------------------- 
D--------------------------------------     {GO ALONG WITH THE SONG} 
A-------------------------------------- 
E-------------------------------------- 
 

    	
fixar
fixar inscrever-se

enviado porenviado por: anônimo
cifra enviadaCorrigida por: sem correções
logo top cifrasComente
ico música do artistaMúsicas deste artista
ico curtiuCurtiu?
ico destaqueDestaque
Petaxxon Comunicação Online

Cifras.com.br - Melhor e mais completo site de cifras e tablaturas do Brasil Mais de 1 milhão de acordes de músicas cadastradas desde 2003
As informações contidas no nosso site são colaborações de seus usuários e podem conter erros, sendo assim, não nos responsabilizamos sobre nenhuma destas.

close
menos
mais
close
Cor dos acordes:

Cor da letra:

close
Alinhar acordes a direita Alinhar acordes a esquerda Alinhar acordes em baixo Alinhar acordes no topo
close
  Mostrar todos os acordes Esconder acordes muito fáceis Esconder acordes fáceis Esconder acordes intermediários
redimensionar
glossário