Cifras e Tablaturas
Iron Fire

Iron Fire

Wanted Man

Cifras Cancelar Versão de Impressão Print

Iron Fire - Wanted Man

Tom: Db

  			 
Tuning:Db 
Tabbed by:Halfpastdead 
|---------------------------------------------------------- 
|---------------------------------------------------------- 
|---------------------------------------------------------- 
|0--3--5----5--3--0----0--3--5----5--3--0----0--3--5----5-3 
|0--3--5----5--3--0----0--3--5----5--3--0----0--3--5----5-3 
|0--3--5----5--3--0----0--3--5----5--3--0----0--3--5----5-3 
Intro 
|---------------------------------------------------------- 
|---------------------------------------------------------- 
|--------------------------------------------------5------- 
|-3-0-0--------3-0-0--------3-0-0--------5-5-7-5-3-5-3-0-0- 
|-3-0-0-003300-3-0-0-003300-3-0-0-003300-5-5-7-5-3-3-3-0-0- 
|-3-0-0-003300-3-0-0-003300-3-0-0-003300-5-5-7-5-3---3-0-0- 
        ------       ------       ------ 
|---------------------------------------------| 
|---------------------------------------------| 
|-------------------------------------------5-| 
|-------3-0-0--------3-0-0--------5-5-7-5-3-5-| 
|003300-3-0-0-003300-3-0-0-003300-5-5-7-5-3-3-| 
|003300-3-0-0-003300-3-0-0-003300-5-5-7-5-3---| 
 ------       ------       ------ 
|---------------------------------------------------------| 
|---------------------------------------------------------| 
|---------------------------------------------------------| 
|3-0-0-------3-0-0-------8-----------10-------------------| 
|3-0-0-------3-0-0-------8-8-8-8-8-8-10-10-10-10-10-10-10-| 
|3-0-0-------3-0-0-------8-8-8-8-8-8-10-10-10-10-10-10-10-| 
Verse(2x)                  - - - - -    -  -  -  -  -  - 
|----------------------------------------------------| 
|----------------------------------------------------| 
|----------------------------------------------------| 
|8--3--10-10-12-12p10-10--5--0--7-7-8-8p7-7----------| 
|8--3--10-10-12-12p10-10--5--0--7-7-8-8p7-7-00000000-| 
|8--3--10-10-12-12p10-10--5--0--7-7-8-8p7-7-00000000-| 
Prechorus                                   --------   
|---------------------------------------------------------- 
|---------------------------------------------------------- 
|---------------------------------------------------------- 
|8-----5-----7-5-3------------5-5-3-5-3-0-----------8-----5 
|8-8-8-5-5-5-7-5-3-0-3-5-3-0--5-5-3-5-3-0-0-3-5-3-0-8-8-8-5 
|8-8-8-5-5-5-7-5-3-0-3-5-3-0--5-5-3-5-3-0-0-3-5-3-0-8-8-8-5 
   - -   - -       - - - - -              - - - - -   - - 
Chorus 
|------------------------|--------------------------------- 
|------------------------|--------------------------------- 
|------------------------|--------------------------------- 
|-----7-5-3------------5-|3-----3-5--5-----8-10--8-----8-10 
|-5-5-7-5-3-0-3-5-3-0--5-|3-0-0-3-5--5-0-0-8-10--8-0-0-8-10 
|-5-5-7-5-3-0-3-5-3-0--5-|3-0-0-3-5--5-0-0-8-10--8-0-0-8-10 
  - -       - - - - -       - -        - -         - -  
                          Part Under Solo 1(3x) 
|-----------------------|---------------------------------- 
|-----------------------|---------------------------------- 
|-----------------------|---------------------------------- 
|-8-3-10-10-12-12p10-10-|------------------5-3------------- 
|-8-3-10-10-12-12p10-10-|000-000-000-0-3-0-5-3-000-000-000- 
|-8-3-10-10-12-12p10-10-|000-000-000-0-3-0-5-3-000-000-000- 
                         --- --- --- - - -     --- --- --- 
                         Part Between Solos(2x) 
|----|---------------------13^ (13)15p13p12--------------- 
|----|-------------------------------------15-13-13h15-15^ 
|----|---------3---5/7-7---------------------------------- 
|3-3-|---3-5-5---5---------------------------------------- 
|3-3-|/5-------------------------------------------------- 
|3-3-|---------------------------------------------------- 
      Solo 2 
|-----------------------------/12-13-12---/12-13-12-15-/12 
|(15)13p12-----------------------------15----------------- 
|---------14p12h14-14p12---------------------------------- 
|-----------------------14-------------------------------- 
|--------------------------------------------------------- 
|--------------------------------------------------------- 
 
|-13-12--15^(15)13-15^19(15)-15^(15)-13---|---------------- 
|------15------------------------------15-|---------------- 
|-----------------------------------------|---------------- 
|-----------------------------------------|0--3--5--5-3---- 
|-----------------------------------------|0--3--5--5-3-000 
|-----------------------------------------|0--3--5--5-3-000 
                                          Before Chorus --- 
|------|---------------------------------------------------| 
|------|---------------------------------------------------| 
|------|---------------------------------------------------| 
|------|8-----5-----7-5-3------------5-5-3-5-3-0-----------| 
|00000-|8-8-8-5-5-5-7-5-3-0-3-5-3-0--5-5-3-5-3-0-0-3-5-3-0-| 
|00000-|8-8-8-5-5-5-7-5-3-0-3-5-3-0--5-5-3-5-3-0-0-3-5-3-0-| 
 -----    - -   - -       - - - - -              - - - - - 
       Last Chorus(4x) 
Song Order 
1.Intro 
2.Verse(2x) 
3.Prechorus 
4.Chorus 
5.Verse(2x) 
6.Prechorus 
7.Chorus 
8.Solo1 & part under 
9.Part Between Solos(2x) 
10.Solo2 
11.Before Chorus 
12.Last Chorus(4x) 
 

    	
fixar
fixar inscrever-se

enviado porenviado por: anônimo
cifra enviadaCorrigida por: sem correções
logo top cifrasComente
ico música do artistaMúsicas deste artista
ico curtiuCurtiu?
ico destaqueDestaque
Petaxxon Comunicação Online

Cifras.com.br - Melhor e mais completo site de cifras e tablaturas do Brasil Mais de 1 milhão de acordes de músicas cadastradas desde 2003
As informações contidas no nosso site são colaborações de seus usuários e podem conter erros, sendo assim, não nos responsabilizamos sobre nenhuma destas.

close
menos
mais
close
Cor dos acordes:

Cor da letra:

close
Alinhar acordes a direita Alinhar acordes a esquerda Alinhar acordes em baixo Alinhar acordes no topo
close
  Mostrar todos os acordes Esconder acordes muito fáceis Esconder acordes fáceis Esconder acordes intermediários
redimensionar
glossário