Cifras e Tablaturas
Iron Maiden

Iron Maiden

Aces High Tablatura Verificada

Ano: 1996
Album : Iron Maidens
Compositor : (Steve Harris)

Cifras Cancelar Versão de Impressão
cifras

Iron Maiden - Aces High

fixar na tela  
Exibindo: vídeo-aula ver clipes redimensionar
  
Intro: 

Guitar 1: 

e|----------------------------| 
A|----------------------------| 
D|----------------------------| 
G|-----6---7-6-------6---7--6-| 
B|-7-9---9-------7-9---9------| 
E|----------------------------|(8x) 



e|---------------------------------| 
B|---------------------------------| 
G|---------------------------------| 
D|----6---7-6----4-4-4--6--4--2~~--| 
A|7-9---9--------------------------| 
E|---------------------------------| 

Guitar 2: 

e|--------------------------| 
B|--------------------------| 
G|---------6------------6---| 
D|-6-7-9-7---9--6-7-9-7---9-| 
A|--------------------------| 
E|--------------------------| (8x) 

e|--------------------------------| 
B|--------------------------------| 
G|---------6----------------------| 
D|-6-7-9-7---9---7-7-7--9--7--6~~-| 
A|--------------------------------| 
E|--------------------------------| 

Intro 2: 

Guitar 1: 
e|----------------------------------------------|----| 
B|--------------5-5-----------------5-3-5-3-----|----| 
G|-5--4-5-4-5-4-----5--5--4-5-4-5-4---------5-4-|-5--| 
D|----------------------------------------------|----| 
A|----------------------------------------------|----| 
E|----------------------------------------------|----| 
                                              (4x) 
Guitar 2: 

e|----------------------------------------------|-----| 
B|----------------------------------------------|-----| 
G|-2-0-2-0-2-0--5-5-2--2-0-2-0-2-0--5-4-5-4-2-0-|-2---| 
D|----------------------------------------------|-----| 
A|----------------------------------------------|-----| 
E|----------------------------------------------|-----| 

Part A: E5 F#5 G5 A5 D5 F#5 E5 G5 F#5 D5 F#5 D5 E5 F#5 G5 A5 G5 F#5 E5 G5 F#5 D5 


Part A: A5 B5 C5 D5 C5 B5 A5 C5 B5 G5 B5 G5 A5 B5 C5 D5 C5 B5 A5 C5 B5 G5 

Part B: 

e|--------------------------------------------------------| 
B|--------------------------------------------------------| 
G|----------------------------2-----------5-4-2---4-2-----| 
D|-0h2-2-2-2-2--5p2-2-2-2-2-----2-2-2-2-2-------5-----5-4-| 
A|--------------------------------------------------------| 
E|--------------------------------------------------------| 

e|---------------------------------------------------| 
B|---------------------------------------------------| 
G|----------------------------2-----------5-4-2---4--| 
D|-0h2-2-2-2-2--5p2-2-2-2-2-----2-2-2-2-2-------5----| 
A|---------------------------------------------------| 
E|---------------------------------------------------| 

e|--------------------------------------------------------| 
B|--------------------------------------------------------| 
G|----------------------------2-----------5-4-2---4-2-----| 
D|-0h2-2-2-2-2--5p2-2-2-2-2-----2-2-2-2-2-------5-----5-4-| 
A|--------------------------------------------------------| 
E|--------------------------------------------------------| 

e|----------------------------------------------------------| 
B|----------------------------------------------------------| 
G|----------------------------2-----------5-4-2---4-2-------| 
D|-0h2-2-2-2-2--5p2-2-2-2-2-----2-2-2-2-2-------5-----5-4-2-| 
A|----------------------------------------------------------| 
E|----------------------------------------------------------| 

Chorus: E5 C5 D5 E5 C5 D5 E5 C5 D5 E5 C5 D5 G5 D#5 F5 G5 D#5 F5 G5 D#5 F5 G5 D#5 F5 

Riff 1: 

e|-------------------------------------------| 
B|-------------------------------------------| 
G|-------------------------------------------| 
D|-------------------7---------------------2-| 
A|-0-3-3-0-0-3-2-0-0-5---0-2-2-0-0-3-2-0---0-| 
E|---------------------------------------3---| (4x) 

Solo: 

Guitar 1: 

e|-------------------------------------------------------------------| 
B|-------------------------------------------------------------------| 
G|-7b9-(9)-(9)-(9)-(9)-(9)-(9)-(9)-(9)-(9)-(9)-(9)-(9)-(9)-(9)-(9)r7-| 
D|-------------------------------------------------------------------| 
A|-------------------------------------------------------------------| 
E|-------------------------------------------------------------------| 

e|-----------------------------------| 
B|--8b10-5h8p5---5-------------------| 
G|-------------7---7-5-7-5---5-------| 
D|-------------------------7---7-5---| 
A|---------------------------------7-| 
E|-----------------------------------| 

e|-8p5p0--7p5p0-| 
B|--------------| 
G|--------------| 
D|--------------| 
A|--------------| 
E|--------------| 

e|----------------------------------------------------------| 
B|-8/10--------------------------12h13p12----12h15p12-------| 
G|----------14p12-14p12----12h14----------14----------15b17-| 
D|----------------------14----------------------------------| 
A|----------------------------------------------------------| 
E|----------------------------------------------------------| 

Guitar 2: 

e|-----------------| 
B|-15-12-0-15-14-0-| 
G|-----------------| 
D|-----------------| 
A|-----------------| 
E|-----------------| (5x) 

e|--------------------------------------------------| 
B|-0-0-12-0-10-0-8-0-10-0-8-0-7-0-5-0-7-0-8-0-7-0---| 
G|------------------------------------------------6-| 
D|--------------------------------------------------| 
A|--------------------------------------------------| 
E|--------------------------------------------------| 

e|-----------------------------------------------| 
B|---------10-9-7---9-7--------------------------| 
G|-------7--------9-----9b11-9-7---9-7-----------| 
D|-7/9-9-------------------------9-----9-7-------| 
A|-----------------------------------------9-8-5-| 
E|-----------------------------------------------| 

e|---------------------------------------------17b19-(19)~~-| 
B|---------------------------15-17-17b19-17-15--------------| 
G|-11-10-9-7-------------/16--------------------------------| 
D|-----------9-7--------------------------------------------| 
A|---------------9-8-7-5------------------------------------| 
E|----------------------------------------------------------| 

End Riff: 

e|-----------------------------------------------------------| 
B|-----------------------------------------------------------| 
G|-5-4-5-4-5-4/7-7-7-9--7h9p7p5\4--/12-10-9-7-9-10-9-7-5-----| 
D|---------------------------------------------------------2-| 
A|---------------------------------------------------------0-| 
E|-----------------------------------------------------------| 

e|----------------------------------------------------------| 
B|----------------------------------------------------------| 
G|-2-0-2-0-2-0-2-0-/4-4-4-5--4h5p4p2-0-7/9-7-5-4-5-7-5-4----| 
D|--------------------------------------------------------2-| 
A|--------------------------------------------------------0-| 
E|----------------------------------------------------------| 

  

cifra enviadacorrigido por:Acelot
enviado porenviada por:diewithme
top 5 | iron maiden
top heavy metal
Outras músicas do artista letras do(a) Iron Maiden
Top cifras »Top artistas »
Petaxxon Comunicação Online
Cifras.com.br - Melhor e mais completo site de cifras e tablaturas do Brasil
Mais de 1 milhão de acordes de músicas cadastradas desde 2003
As informações contidas no nosso site são colaborações de seus usuários e podem conter erros, sendo assim, não nos responsabilizamos sobre nenhuma destas.
close
menos
mais
close
Cor dos acordes:

Cor da letra:

 

save
close
close
 
redimensionar