Cifras e Tablaturas
Cifras Cancelar Versão de Impressão
cifras

Iselin Solheim - Oracle

fixar na tela  
Exibindo: vídeo-aula ver clipes redimensionar

Tom:

E

ver outros tons
  
Intro 
  C#m              E 
  1 & 2 & 3 & 4 &  1 & 2 & 3 & 4 & 
e|----------------|----------------| 
B|----------------|----------------| 
G|------4---------|------4---------| 
D|--6-------6---6-|--4-------4---4-| x2 
A|4---4---4---4---|7---7---7---7---| 
E|----------------|----------------| 

verse 1 
  C#m              E                C#m              E 
  1 & 2 & 3 & 4 &  1 & 2 & 3 & 4 &  1 & 2 & 3 & 4 &  1 & 2 & 3 & 4 & 
e|----------------|----------------|----------------|----------------| 
B|----------------|----------------|----------------|----------------| 
G|----------------|----------------|----------------|----------------| 
D|--6---6---6---6-|--4---4---4---4-|--6---6---6---6-|--4---4---4---4-| 
A|4---4---4---4---|7---7---7---7---|4---4---4---4---|7---7---7---7---| 
E|----------------|----------------|----------------|----------------| 

  C#m              E                C#m              E 
  1 & 2 & 3 & 4 &  1 & 2 & 3 & 4 &  1 & 2 & 3 & 4 &  1 & 2 & 3 & 4 & 
e|----------------|----------------|----------------|----------------| 
B|----------------|----------------|----------------|----------------| 
G|------4---------|------4---------|------4---------|------4---------| 
D|--6-------6---6-|--4-------4---4-|--6-------6---6-|--4-------4---4-| 
A|4---4---4---4---|7---7---7---7---|4---4---4---4---|7---7---7---7---| 
E|----------------|----------------|----------------|----------------| 

  C#m              E                C#m              E 
  1 & 2 & 3 & 4 &  1 & 2 & 3 & 4 &  1 & 2 & 3 & 4 &  1 & 2 & 3 & 4 & 
e|----------------|----------------|----------------|----------------| 
B|----------------|----------------|----------------|----------------| 
G|--4---4---4---4-|--4---4---4---4-|--4---4---4---4-|--4---4---4---4-| 
D|--6---6---6---6-|--4---4---4---4-|--6---6---6---6-|--4---4---4---4-| 
A|4---4---4---4---|7---7---7---7---|4---4---4---4---|7---7---7---7---| 
E|----------------|----------------|----------------|----------------| 

C#m                              E  
On this road, nothing feels like home 
     C#m                   E      C#m E 
But, you and I, we are not alone 
           C#m   E 
We are not alone 
C#m                     E 
Up we go, up we go in a rush 
C#m                            E 
Down we fall, down we fall and then we crash 

Pre-Chorus 
  G#m              A                G#m              A 
  1 & 2 & 3 & 4 &  1 & 2 & 3 & 4 &  1 & 2 & 3 & 4 &  1 & 2 & 3 & 4 & 
e|----------------|----------------|----------------|----------------| 
B|----------------|----------------|----------------|----------------| 
G|--4---4---4---4-|--4---4---4---4-|--4---4---4---4-|4---------------| 
D|--6---6---6---6-|--7---7---7---7-|--6---6---6---6-|7(Ring out)-----| 
A|6---6---6---6---|7---7---7---7---|6---6---6---6---|7---------------| 
E|----------------|----------------|----------------|----------------| 
       G#m    A                G#m    A 
I wish I, had wings to keep me up, to keep me with you 

Chorus 
C#m    B       A 
Oracle tell me now, 
         C#m           B            A 
Before I lose my mind, lose my mind 
C#m              B               A 
Tell me how, and I can stop this fight 
         C#m           B            A 
Before I lose my mind, lose my mind 
    C#m     B     A 
Oh, oracle, oracle 

Interlude 
  C#m              E 
  1 & 2 & 3 & 4 &  1 & 2 & 3 & 4 & 
e|----------------|-----------------| 
B|----------------|-----------------| 
G|------4---------|------4----------| 
D|--6-------6---6-|--4-------4-4642-| 
A|4---4---4---4---|7---7---7-------4| 
E|----------------|-----------------| 

verse 2 
  C#m              E                C#m              E 
  1 & 2 & 3 & 4 &  1 & 2 & 3 & 4 &  1 & 2 & 3 & 4 &  1 & 2 & 3 & 4 & 
e|----------------|----------------|----------------|----------------| 
B|----------------|----------------|----------------|----------------| 
G|------4---------|------4---------|------4---------|------4---------| 
D|--6-------------|--4-------------|--6-------------|--4-------------| 
A|4---4-----------|7---7-----------|4---4-----------|7---7-----------| 
E|----------------|----------------|----------------|----------------| 
C#m                            E 
Blinded by streetlights in the cold 
C#m                            E 
Bring me back, just to make me warm 

Pre-Chorus 
  G#m              A                G#m              A 
  1 & 2 & 3 & 4 &  1 & 2 & 3 & 4 &  1 & 2 & 3 & 4 &  1 & 2 & 3 & 4 & 
e|----------------|----------------|----------------|----------------| 
B|----------------|----------------|----------------|----------------| 
G|--4---4---4---4-|--4---4---4---4-|--4---4---4---4-|4---------------| 
D|--6---6---6---6-|--7---7---7---7-|--6---6---6---6-|7(Ring out)-----| 
A|6---6---6---6---|7---7---7---7---|6---6---6---6---|7---------------| 
E|----------------|----------------|----------------|----------------| 
       G#m    A                G#m    A 
I wish I, had wings to keep me up, to keep me with you 

Chorus 
C#m    B       A 
Oracle tell me now, 
         C#m           B            A 
Before I lose my mind, lose my mind 
    C#m              B               A 
Oh, tell me how, and I can stop this fight 
         C#m           B            A 
Before I lose my mind, lose my mind 
    C#m     B 
Oh, oracle, oracle 

Bridge 
F# A B A C#m F# A 
                I just don't know how 

Chorus 2 
  C#m              B                A               
  1 & 2 & 3 & 4 &  1 & 2 & 3 & 4 &  1 & 2 & 3 & 4 &  
e|----------------|----------------|----------------| 
B|----5-----------|----------------|----5-----------| 
G|----6-----------|----------------|----4-----------| 
D|--6-6-----------|----------------|--4-4-----------| 
A|4---------------|----------------|4---------------| 
E|----------------|----------------|----------------| 
  C#m              B                A               
  1 & 2 & 3 & 4 &  1 & 2 & 3 & 4 &  1 & 2 & 3 & 4 &  
e|----------------|----------------|----------------| 
B|----5-----------|----2-----------|----0-----------| 
G|----6-----------|----4-----------|----2-----------| 
D|--6-6-----------|--4-4-----------|--2-2-----------| 
A|4---------------|2---------------|0---------------| 
E|----------------|----------------|----------------| 
  C#m              B                A               
  1 & 2 & 3 & 4 &  1 & 2 & 3 & 4 &  1 & 2 & 3 & 4 &  
e|----------------|----------------|----------------| 
B|----5-----------|----2-----------|----0-----------| 
G|----6-----------|----4-----------|----2-----------| 
D|--6-6-----------|--4-4-----------|--2-2-----------| 
A|4---------------|2---------------|0---------------| 
E|----------------|----------------|----------------| 
  C#m              B                A               
  1 & 2 & 3 & 4 &  1 & 2 & 3 & 4 &  1 & 2 & 3 & 4 &  
e|----------------|----------------|----------------| 
B|----5-----------|----2-----------|----0-----------| 
G|----6-----------|----4-----------|----2-----------| 
D|--6-6-----------|--4-4-----------|--2-2-----------| 
A|4---------------|2---------------|0---------------| 
E|----------------|----------------|----------------| 
C#m    B       A 
Oracle tell me now, 
         C#m           B            A 
Before I lose my mind, lose my mind 
    C#m              B               A 
Oh, tell me how, and I can stop this fight 
         C#m           B   A 
Before I lose my mind, Oh--- 

Chorus 
C#m    B       A 
Oracle tell me now, 
         C#m           B            A 
Before I lose my mind, lose my mind 
    C#m              B               A 
Oh, tell me how, and I can stop this fight 
         C#m           B            A 
Before I lose my mind, lose my mind 
    C#m     B     A 
Oh, oracle, oracle 

Outro 
    C#m     B      A 
Oh, oracle, oracle 

  C#m              E                C#m              E 
  1 & 2 & 3 & 4 &  1 & 2 & 3 & 4 &  1 & 2 & 3 & 4 &  1 & 2 & 3 & 4 & 
e|----------------|----------------|----------------|----------------| 
B|----------------|----------------|----------------|----------------| 
G|------4---------|------4---------|------4---------|------4---------| 
D|--6-------6---6-|--4-------4---4-|--6-------6---6-|--4-------4-----| 
A|4---4---4---4---|7---7---7---7---|4---4---4---4---|7---7---7---7---| 
E|----------------|----------------|----------------|----------------| 
 
  

cifra enviadasem correções
enviado porenviada por:gustsilva
top 5 | iselin solheim
top rock'n roll
Outras músicas do artista letras do(a) Iselin Solheim
Top cifras »Top artistas »
Petaxxon Comunicação Online
Cifras.com.br - Melhor e mais completo site de cifras e tablaturas do Brasil
Mais de 1 milhão de acordes de músicas cadastradas desde 2003
As informações contidas no nosso site são colaborações de seus usuários e podem conter erros, sendo assim, não nos responsabilizamos sobre nenhuma destas.
close
menos
mais
close
Cor dos acordes:

Cor da letra:

 

save
close
close
 
redimensionar