Cifras e Tablaturas
Cifras Cancelar Versão de Impressão
cifras

Jacek Kaczmarski - Rublow

fixar na tela  
Exibindo: vídeo-aula ver clipes redimensionar

Tom:

Am

ver outros tons
  
Intro 

  Am 
e|-----------------|-----------------|-----------------|-----------------| 
B|-----1---1---1---|-1---1---1---1---|-----1---1---1---|-1---1---1---1---| 
G|---2---2---2---2-|---2---2---2---2-|---2---2---2---2-|---2---2---2---2-| 
D|-----------------|-----------------|-----------------|-----------------| 
A|-0---------------|-----------------|-0---------------|-----------------| 
E|-----------------|-----------------|-----------------|-----------------| 


  Am 
e|-----------------|-----------------|-----------------|-----------------| 
B|-----1-------1---|-----1-------1---|-----------------|-----1---1---1---| 
G|---2---2---2---2-|---2---2---2---2-|---2---2---2---2-|---2---2---2---2-| 
D|-----------------|---------0-------|-2---3---2-------|-----------------| 
A|-0-------2-------|-3---------------|-------------3---|-0---------------| 
E|-----------------|-----------------|-----------------|-----------------| 


  Am                                                    Esus4 
e|-----------------|-----------------|-----------------|-----------------| 
B|-----1-------1---|-----1-------1---|-----------------|-----0---0---0---| 
G|---2---2---2---2-|---2---2---2---2-|---2---2---2---2-|---2---2---2---2-| 
D|-----------------|---------0-------|-2---3---2-------|-----------------| 
A|-0-------2-------|-3---------------|-------------0---|-2---------------| 
E|-----------------|-----------------|-----------------|-----------------| 


  Esus4 
e|-----------------|-----------------|-----------------|-----------------| 
B|-----0-------0---|-----0-------0---|-----0---0---0---|-----0---0---0---| 
G|---2---2---2---2-|---2---2---2---2-|---2---2---2---2-|---2---2---2---2-| 
D|-----------------|-0-------2-------|-3---------------|-2---------------| 
A|-2-------3-------|-----------------|-----------------|-----------------| 
E|-----------------|-----------------|-----------------|-----------------| 


  Esus4                               Am 
e|-----------------|-----------------|-----------------|-----------------| 
B|-----0-------0---|-----0-------0---|-----1---1---1---|-1---1---1---1---| 
G|---2---2---2---2-|---2---2---2---2-|---2---2---2---2-|---2---2---2---2-| 
D|-2-------0-------|-----------------|-----------------|-----------------| 
A|-----------------|-3-------2-------|-0---------------|-----------------| 
E|-----------------|-----------------|-----------------|-----------------| 



Verse 

  Am 
e|-----------------|-----------------|-----------------|-----------------| 
B|-----1-------1---|-----1-------1---|-----------------|-----1---1---1---| 
G|---2---2---2---2-|---2---2---2---2-|---2---2---2---2-|---2---2---2---2-| 
D|-----------------|---------0-------|-2---3---2-------|-----------------| 
A|-0-------2-------|-3---------------|-------------3---|-0---------------| 
E|-----------------|-----------------|-----------------|-----------------| 

Na ziemi, co zawsze pod wod? lub ?niegiem 


  Am                                                    Esus4 
e|-----------------|-----------------|-----------------|-----------------| 
B|-----1-------1---|-----1-------1---|-----------------|-----0---0---0---| 
G|---2---2---2---2-|---2---2---2---2-|---2---2---2---2-|---2---2---2---2-| 
D|-----------------|---------0-------|-2---3---2-------|-----------------| 
A|-0-------2-------|-3---------------|-------------0---|-2---------------| 
E|-----------------|-----------------|-----------------|-----------------| 

S? drogi, po których nikt prawie nie chodzi 


  Esus4 
e|-----------------|-----------------|-----------------|-----------------| 
B|-----0-------0---|-----0-------0---|-----0-------0---|-----0-------0---| 
G|---2---2---2---2-|---2---2---2---2-|---2---2---2---2-|---2---2---2---2-| 
D|-----------------|-0-------2-------|-3-------2-------|-3-------2-------| 
A|-2-------3-------|-----------------|-----------------|-----------------| 
E|-----------------|-----------------|-----------------|-----------------| 

Tam wariat si? czasem przesunie po niebie, do ludzi na ?odzi wo?aj?c, ?e leci 


  Esus4 
e|-----------------|-----------------|-----------------|-----------------|-----------------| 
B|-----------------|-----1-------1---|-----1-------1---|-----------------|-----1---1---1---| 
G|---2---2---2---2-|---2---2---2---2-|---2---2---2---2-|---2---2---2---2-|---2---2---2---2-| 
D|-2---0-----------|-----------------|---------0-------|-2---3---2-------|-----------------| 
A|---------2---3---|-0-------2-------|-3---------------|-------------3---|-0---------------| 
E|-----------------|-----------------|-----------------|-----------------|-----------------| 

A oni chwytaj? go w sieci 


verse 2 

W?ród pól i rozlewisk tam bia?e s? miasta 
Gdzie ko?mi handluj?, jedwabiem i siark? 
Nad targiem wyrasta przejasny monastyr 
Chora?y i charkot 
Ikona i ko? 
W?dzid?o i z?ota d?o? 


Chorus I 

  F                                  C 
e|-----------------------|-----------------------|-----0-------0--------| 
B|-----1---1---1---1---1-|---1---1-------1---1---|-1-------1-------1----| 
G|---2---2---2---2---2---|-2---2---2---0---0---0-|---0---0---0---0---0--| 
D|-----------------------|-----------------------|----------------------| 
A|-----------------------|-----------3-----------|----------------------| 
E|-1---------------------|-----------------------|----------------------| 

Na ?cianach gospody ?a?cuchy i sierpy 


  Dm                                 Am 
e|---------1-------------|---1---------------0---|-----0-------0--------| 
B|-----3-------3-------3-|-------3-------1-------|-1-------1-------1----| 
G|---2---2---2---2---2---|-2---2---2---2---2---2-|---2---2---2---2---2--| 
D|-0---------------3-----|-----------------------|----------------------| 
A|-----------------------|-----------0-----------|----------------------| 
E|-----------------------|-----------------------|----------------------| 

Weso?ek po udach si? klepie i ?piewa 


  F                 C                 Dm       Dm/F     Am       Dm 
e|---------1-------|---------0-------|-----------------|----------------| 
B|-----1-------1---|-----1-------1---|-----3-------3---|-----1-------3--| 
G|---2---2---2---2-|---0---0---0---0-|---2---2---2---2-|---2---2---2---2| 
D|-----------------|-----------------|-0-------3-------|---------0------| 
A|-----------------|-3---------------|-----------------|-0--------------| 
E|-1---------------|-----------------|-----------------|----------------| 

O ludzie, co ?yje rado?ci?, cho? cierpi, i kto? si? za?miewa, kto? wódk? go raczy 


  Am       Em       Am 
e|-----------------|-----------------|-----------------|-----------------|-----------------| 
B|-----1-------0---|-----1-------1---|-----1-------1---|-----------------|-----1---1---1---| 
G|---2---2---0---0-|---2---2---2---2-|---2---2---2---2-|---2---2---2---2-|---2---2---2---2-| 
D|-----------------|-----------------|---------0-------|-2---3---2-------|-----------------| 
A|-0---------------|-0-------2-------|-3---------------|-------------3---|-0---------------| 
E|---------0-------|-----------------|-----------------|-----------------|-----------------| 

 
  

cifra enviadasem correções
enviado porenviada por:sabrjoao
top 5 | jacek kaczmarski
top rock'n roll
Outras músicas do artista letras do(a) Jacek Kaczmarski
Top cifras »Top artistas »
Petaxxon Comunicação Online
Cifras.com.br - Melhor e mais completo site de cifras e tablaturas do Brasil
Mais de 1 milhão de acordes de músicas cadastradas desde 2003
As informações contidas no nosso site são colaborações de seus usuários e podem conter erros, sendo assim, não nos responsabilizamos sobre nenhuma destas.
close
menos
mais
close
Cor dos acordes:

Cor da letra:

 

save
close
close
 
redimensionar