Cifras e Tablaturas
Jack White

Jack White

Battle Cry

Cifras Cancelar Versão de Impressão
cifras

Jack White - Battle Cry

fixar na tela  
Exibindo: vídeo-aula ver clipes redimensionar
  
Intro 
  G2  w/ flanger       let ring 
e|----------------|----------------|----------------|----------------| 
B|3---------------|----------------|----------------|----------------| 
G|2---------------|----------------|----------------|----------------| 
D|0---------------|----------------|----------------|----------------| 
A|0---------------|----------------|----------------|----------------| 
E|----------------|----------------|----------------|----------------| 


e|----------------|----------------|----------------|----------------| 
B|----------------|----------------|----------------|----------------| 
G|----------------|----------------|----------------|----------------| 
D|----------------|----------------|----------------|----------------| 
A|----------------|----------------|----------------|----------------| 
E|----------------|----------------|----------------|----------------| 

A Section 
  PM               PM               PM               PM 
e|----------------|----------------|----------------|----------------| 
B|----------------|----------------|----------------|----------------| 
G|7---7-----7-7---|7-----7-7---7---|7---7-----7-7---|7-----7-7---7---| 
D|7---7-----7-7---|7-----7-7---7---|7---7-----7-7---|7-----7-7---7---| 
A|5---5-----5-5---|5-----5-5---5---|5---5-----5-5---|5-----5-5---5---| 
E|5---5-----5-5---|5-----5-5---5---|5---5-----5-5---|5-----5-5---5---| 

  PM               PM 
e|----------------|----------------| 
B|----------------|----------------| 
G|7---7-----7-7---|7-----7-7---7---| 
D|7---7-----7-7---|7-----7-7---7---| 
A|5---5-----5-5---|5-----5-5---5---| 
E|5---5-----5-5---|5-----5-5---5-6-| 
                                 *G1 enters 
B Section   
  G1 
e|----------------|----------------|----------------|----------------| 
B|----------------|----------------|----------------|----------------| 
G|----------------|----------------|----------------|----------------| 
D|----------------|----------------|----------------|----------------| 
A|----------------|----------------|----------------|----------------| 
E|6-5-5~----6-6-5-|5~------------6-|6-5-5~----6-6-5-|5~--------------| 

e|----------------|----------------|----------------|----------------| 
B|----------------|----------------|----------------|----------------| 
G|----------------|----------------|----------------|----------------| 
D|----------------|----------------|----------------|----------------| 
A|----------------|----------------|----------------|----------------| 
E|6-5-5~----6-6-5-|5~------------6-|6-5-5~----6-6-5-|5---3---1---0---| 

A Section 
  G1 
e|----------------|----------------|----------------|----------------| 
B|3~--------------|----------------|----------------|----------------| 
G|2~--------------|----------------|----------------|----------------| 
D|0~--------------|----------------|----------------|----------------| 
A|0~--------------|----------------|----------------|----------------| 
E|----------------|----------------|----------------|----------------| 
 |G2 PM            PM               PM               PM 
e|----------------|----------------|----------------|----------------| 
B|----------------|----------------|----------------|----------------| 
G|7---7-----7-7---|7-----7-7---7---|7---7-----7-7---|7-----7-7---7---| 
D|7---7-----7-7---|7-----7-7---7---|7---7-----7-7---|7-----7-7---7---| 
A|5---5-----5-5---|5-----5-5---5---|5---5-----5-5---|5-----5-5---5---| 
E|5---5-----5-5---|5-----5-5---5---|5---5-----5-5---|5-----5-5---5---| 

  PM               PM 
e|----------------|----------------| 
B|----------------|----------------| 
G|7---7-----7-7---|7-----7-7---7---| 
D|7---7-----7-7---|7-----7-7---7---| 
A|5---5-----5-5---|5-----5-5---5---| 
E|5---5-----5-5---|5-----5-5---5-6-| 

B Section 
  G1 
e|----------------|----------------|----------------|----------------| 
B|----------------|----------------|----------------|----------------| 
G|----------------|----------------|----------------|----------------| 
D|----------------|----------------|----------------|----------------| 
A|----------------|----------------|----------------|----------------| 
E|6-5-5~----6-6-5-|5~------------6-|6-5-5~----6-6-5-|5~--------------| 

e|----------------|----------------|----------------|----------------| 
B|----------------|----------------|----------------|----------------| 
G|----------------|----------------|----------------|----------------| 
D|----------------|----------------|----------------|----------------| 
A|----------------|----------------|----------------|----------------| 
E|6-5-5~----6-6-5-|5~------------6-|6-5-5~----6-6-5-|5---3---1---0---| 

Solo 
  G1 (G2 play A Section rhythm) 
e|-----------------------------------------------------------------------------------------| 
B|-----------------------------------------------------------------------------------------| 
G|pb14r12~--pb14(14)14r12p10h12~----pb14r12~--pb14(14)14r12~---pb14r12~--pb14(14)14r12~----| 
D|-----------------------------------------------------------------------------------------| 
A|-----------------------------------------------------------------------------------------| 
E|-----------------------------------------------------------------------------------------| 

                                      toggle pickups* 
e|-----------------------------------------------------------------------------------------| 
B|-------------------------------------------------------------10gb12---13gb15-------------| 
G|pb14r12~--pb14(14)14r12p10----10-------------------12gb15r-------------------------------|*set one pickup 
D|---------------------------12----12~(12)(12)(12)-----------------------------------------| volume to zero 
D|-----------------------------------------------------------------------------------------| and the other to 
A|-----------------------------------------------------------------------------------------| full, or hit 
E|-----------------------------------------------------------------------------------------| killswitch 

  G1 
e|---------------------|----------------|---------------------|----------------|----------------| 
B|11-10-10~---11-11-10-|10~-------------|11-10-10~---10-10-13-|10~-------11-10-|10~----11-11-10-| 
G|---------------------|----------------|---------------------|----------------|----------------| 
D|---------------------|----------------|---------------------|----------------|----------------| 
A|---------------------|----------------|---------------------|----------------|----------------| 
E|---------------------|----------------|---------------------|----------------|----------------| 
 |G2 
e|---------------------|----------------|---------------------|----------------|----------------| 
B|---------------------|----------------|---------------------|----------------|----------------| 
G|---------------------|----------------|---------------------|----------------|----------------| 
D|---------------------|----------------|---------------------|----------------|----------------| 
A|---------------------|----------------|---------------------|----------------|----------------| 
E|6--5--5-----6--6--5--|5~------------6-|6--5--5-----6--6--5--|5------6--6--5--|6~--------------| 
  

e|----------------|----------------|----------------|----------------|----------------| 
B|10~-------------|8~--------------|6~--------------|5~--------------|3~--------------| 
G|----------------|----------------|----------------|----------------|----------------| 
D|----------------|----------------|----------------|----------------|----------------| 
A|----------------|----------------|----------------|----------------|----------------| 
E|----------------|----------------|----------------|----------------|----------------| 
 | 
e|----------------|----------------|----------------|----------------|----------------| 
B|----------------|----------------|----------------|----------------|3~--------------| 
G|----------------|----------------|----------------|----------------|2~--------------| 
D|----------------|----------------|----------------|----------------|0~--------------| 
A|----------------|----------------|----------------|----------------|0~--------------| 
E|5~--------------|3~--------------|1~--------------|0~--------------|----------------| 
 
  

top 5 | jack white
top rock alternativo
Outras músicas do artista letras do(a) Jack White
Top cifras »Top artistas »
Petaxxon Comunicação Online
Cifras.com.br - Melhor e mais completo site de cifras e tablaturas do Brasil
Mais de 1 milhão de acordes de músicas cadastradas desde 2003
As informações contidas no nosso site são colaborações de seus usuários e podem conter erros, sendo assim, não nos responsabilizamos sobre nenhuma destas.
close
menos
mais
close
Cor dos acordes:

Cor da letra:

 

save
close
close
 
redimensionar