Cifras e Tablaturas
Jackass

Jackass

Party Boy

Cifras Cancelar Versão de Impressão Print

Jackass - Party Boy

Tom:

  			 Tabbed by Paul0ne8two 
 
 
When you every feel the mood for parting come check out my tab.
 For you losers who dont know it is the dance music when Chris walks into the shop. 
 
 
e:---------------------------------------------------------- 
B:---------------------------------------------------------- 
G:---------------------------------------------------------- 
D:----------------------------------------3-5-3-5-3-5-3-5--- 
A:---------------------------------------------------------- 
E:--3--3--3--3--3--3--3--1--3--3--3--3--3------------------- 
 
Come on crazy cats. Great also with a friend when you go into a shop and he plays it
 on the guitar and you dance. Try it out.Title:Party Boy 
 
Tabbed by Paul0ne8two 
 
 
When you every feel the mood for parting come check out my tab.
 For you losers who dont know it is the dance music when Chris walks into the shop. 
 
 
e:---------------------------------------------------------- 
B:---------------------------------------------------------- 
G:---------------------------------------------------------- 
D:----------------------------------------3-5-3-5-3-5-3-5--- 
A:---------------------------------------------------------- 
E:--3--3--3--3--3--3--3--1--3--3--3--3--3------------------- 
 
Come on crazy cats. Great also with a friend when you go into a shop and he plays it
 on the guitar and you dance. Try it out. 
 

    	

enviado porenviado por: anônimo
cifra enviadaCorrigida por: sem correções
logo top cifrasComente
ico música do artistaMúsicas deste artista
ico curtiuCurtiu?
ico destaqueDestaque
Petaxxon Comunicação Online

Cifras.com.br - Melhor e mais completo site de cifras e tablaturas do Brasil Mais de 1 milhão de acordes de músicas cadastradas desde 2003
As informações contidas no nosso site são colaborações de seus usuários e podem conter erros, sendo assim, não nos responsabilizamos sobre nenhuma destas.

close
menos
mais
close
Cor dos acordes:

Cor da letra:

close
Alinhar acordes a direita Alinhar acordes a esquerda Alinhar acordes em baixo Alinhar acordes no topo
close
  Mostrar todos os acordes Esconder acordes muito fáceis Esconder acordes fáceis Esconder acordes intermediários
redimensionar
glossário