Cifras e Tablaturas
Jamie T

Jamie T

Tescoland

Cifras Cancelar Versão de Impressão
cifras

Jamie T - Tescoland

fixar na tela  
Exibindo: vídeo-aula ver clipes redimensionar

Tom:

  
verse 1 

guitar 1  

e|----------------------------------------------------------------------| 
B|----------------------------------------------------------------------| 
G|----------------------------------------------------------------------| 
D|----------------------------------------------------------------------| 
A|33--322-200-0---------------------------------------------------------| 
E|------------ 33--3----------------------------------------------------| 
pm******************* 

guitar 2 

e|3-3-3-3---------------------------------------------------------------| 
B|3-3-3-3---------------------------------------------------------------| 
G|----------------------------------------------------------------------| 
D|----------------------------------------------------------------------| 
A|----------------------------------------------------------------------| 
E|----------------------------------------------------------------------| 

*-----------------------* 
try to play both parts if theres only one of you, if its too hard try: 

e|--------------------------------------------------------------------| 
B|--------------------------------------------------------------------| 
G|--5---5---5---5-----------------------------------------------------| 
D|--5---5---5---5-----------------------------------------------------| 
A|33--22--00----------------------------------------------------------| 
E|------------33------------------------------------------------------| 

but this doesn't sound as good 
*------------------------* 
  

guitar 1 comes in with this after 4 times: 

e|777777 7878----------------------------------------------------------------| 
B|---------------------------------------------------------------------------| 
G|---------------------------------------------------------------------------| 
D|---------------------------------------------------------------------------| 
A|---------------------------------------------------------------------------| 
E|---------------------------------------------------------------------------| 


pre Chorus 

let ring 

e|---------------------------------------------------------------------------| 
B|---------------------------------------------------------------------------| 
G|---------------------------------------------------------------------------| 
D|7--10--5--4--7--10---------------------------------------------------------| 
A|7--10--5--4--7--10---------------------------------------------------------| 
E|5--8---3--2--5--8----------------------------------------------------------| 


Chorus solo bit 

guitar 1: 

e|---------------------------------------------------------------------------| 
B|------17-15----------------------------17-15-------------------------------| 
G|16-14--------16-17-16-17-16------16-14-------16-17-16-17-16----12-14-12-14-| 
D|----------------------------17------------------------------17-------------| 
A|---------------------------------------------------------------------------| 
E|---------------------------------------------------------------------------| 

guitar 2: 

e|777777 7878----------------------------------------------------------------| 
B|---------------------------------------------------------------------------| 
G|---------------------------------------------------------------------------| 
D|---------------------------------------------------------------------------| 
A|---------------------------------------------------------------------------| 
E|---------------------------------------------------------------------------| 


verse 2 is same as 1 

pre Chorus: 


bridge listen to the strumming for this part  

e|---------------------------------------------------------------------------| 
B|---------------------------------------------------------------------------| 
G|---------------------------------------------------------------------------| 
D|10--9--7--5------------7--10-----------------------------------------------| 
A|10--9--7--5--x3--then--7--10-----------------------------------------------| 
E|8---7--5--3------------5--8------------------------------------------------| 

the next bit is the same as the intro/first verse without drum: 

listen to the timing for when to play the guitar 2 bit: 

guitar 1  

e|----------------------------------------------------------------------| 
B|----------------------------------------------------------------------| 
G|----------------------------------------------------------------------| 
D|----------------------------------------------------------------------| 
A|33--322-200-0---------------------------------------------------------| 
E|------------ 33--3----------------------------------------------------| 
pm******************* 

guitar 2: 

e|3-3-3-3---------------------------------------------------------------| 
B|3-3-3-3---------------------------------------------------------------| 
G|----------------------------------------------------------------------| 
D|----------------------------------------------------------------------| 
A|----------------------------------------------------------------------| 
E|----------------------------------------------------------------------| 
  
guitar 3: 

e|777777-7878----------------------------------------------------------------| 
B|---------------------------------------------------------------------------| 
G|---------------------------------------------------------------------------| 
D|---------------------------------------------------------------------------| 
A|---------------------------------------------------------------------------| 
E|---------------------------------------------------------------------------|  


then pre Chorus: 

Outro 

post Chorus solo and pre bridge bit: 

ends with: 

guitar 1: 

e|----------------------------------------------------------------------| 
B|----------------------------------------------------------------------| 
G|----------------------------------------------------------------------| 
D|----------------------------------------------------------------------| 
A|33--322-200-0---------------------------------------------------------| 
E|------------ 33--3----------------------------------------------------| 
pm******************* 

and  

guitar 2: 

e|3-3-3-3---------------------------------------------------------------| 
B|3-3-3-3---------------------------------------------------------------| 
G|----------------------------------------------------------------------| 
D|----------------------------------------------------------------------| 
A|----------------------------------------------------------------------| 
E|----------------------------------------------------------------------| 



live lounge bridge he just strums loads and once each in the outro: 

e|3-3-3-3---------------------------------------------------------------| 
B|3-3-3-3---------------------------------------------------------------| 
G|----------------------------------------------------------------------| 
D|----------------------------------------------------------------------| 
A|3-2-0-----------------------------------------------------------------| 
E|------3---------------------------------------------------------------| 



************************************ 

| x  Dead note 

************************************ 
  

top 5 | jamie t
top rock alternativo
Outras músicas do artista letras do(a) Jamie T
Top cifras »Top artistas »
Petaxxon Comunicação Online
Cifras.com.br - Melhor e mais completo site de cifras e tablaturas do Brasil
Mais de 1 milhão de acordes de músicas cadastradas desde 2003
As informações contidas no nosso site são colaborações de seus usuários e podem conter erros, sendo assim, não nos responsabilizamos sobre nenhuma destas.
close
menos
mais
close
Cor dos acordes:

Cor da letra:

 

save
close
close
 
redimensionar