Cifras e Tablaturas
JANK

JANK

Caitlyn

Cifras Cancelar Versão de Impressão
cifras

JANK - Caitlyn

fixar na tela  
Exibindo: vídeo-aula ver clipes redimensionar

Tom:

D#

ver outros tons
  
 
Capo 2 

Intro 

D#|x-x--xxxx-x--xxxxxxxxxxxx------------| 
A#|x-x--xxxx-x--xxxxxxxxxxxx------------| 
F#|x-x--xxxx-x--xxxxxxxxxxxx------------| 
C#|x-x--xxxx-x--xxxxxxxxxxxx------------| 
G#|x-x--xxxx-x--xxxxxxxxxxxx------------| 
D#|x-x--xxxx-x--xxxxxxxxxxxx------------| 
                             
Verse 
D#|--------------------------------------------------------------------| 
A#|--------------------------------------------------------------------| 
F#|--------------------------------------------------------------------|   4X 
C#|9-9-9999-9-999-7-7-7777-7-777-5-5-555-5-5-555-4-4-444-5-7-----------| 
G#|x-x-xxxx-x-xxx-x-x-xxxx-x-xxx-x-x-xxx-x-x-xxx-x-x-xxx-x-x-----------| 
D#|8-8-8888-8-888-7-7-7777-7-777-5-5-555-4-4-444-3-3-333-5-7-----------| 

Bridge 
D#|-----------------------------------------------------| 
A#|-----------------------------------------------------| 
F#|-----------------------------------------------------|2X 
C#|9999999999999999-9999999999999999--------------------| 
G#|xxxxxxxxxxxxxxxx-xxxxxxxxxxxxxxxx--------------------| 
D#|9999999999999999-8888888888888888--------------------| 
you're not real 

D#|---------------------------------------------------------------------| 
A#|---------------------------------------------------------------------| 
F#|9999999999999999-9999999999999999------------------------------------|2X 
C#|9999999999999999-9999999999999999------------------------------------| 
G#|xxxxxxxxxxxxxxxx-xxxxxxxxxxxxxxxx------------------------------------| 
D#|9999999999999999-8888888888888888------------------------------------| 

D#|------------------------------------------------------------------------------------------------| 
A#|1010101010101010101010101010101212121212121212121212121212121212--------------------------------| 
F#|9-9-9-9-9-9-9-9-9-9-9-9-9-9-9-9-9-9-9-9-9-9-9-9-9-9-9-9-9-9-9-9---------------------------------| 
C#|9-9-9-9-9-9-9-9-9-9-9-9-9-9-9-9-9-9-9-9-9-9-9-9-9-9-9-9-9-9-9-9---------------------------------| 2X 
G#|x-x-x-x-x-x-x-x-x-x-x-x-x-x-x-x-x-x-x-x-x-x-x-x-x-x-x-x-x-x-x-x---------------------------------| 
D#|9-9-9-9-9-9-9-9-9-9-9-9-9-9-9-9-8-8-8-8-8-8-8-8-8-8-8-8-8-8-8-8---------------------------------| 

D#|-10h12p10--------------------------------| 
A#|----------12p0-8--------------------------| 
F#|-----------------------------------------| 
C#|-----------------------------------------| 
G#|-----------------------------------------| 
D#|-----------------------------------------| 

Next section 
D#|x---xxx---x---xxx---x-------x--xxx-x-xxx--x-xxxxxx---------------------------| 
A#|0---000---0---000---0-------0--000-0-000--0-000000---------------------------| 
F#|x---xxx---x---xxx---x-------x--xxx-x-xxx--x-xxxxxx---------------------------| 
C#|7---77x---4---44x---1-------7--777-4-444--1-111111---------------------------| 
G#|-----------------------------------------------------------------------------| 
D#|-----------------------------------------------------------------------------| 
                               .  ... . ...   

Quiet section 
D#|-----------------------------------------| 
A#|---------------15p0-15p0-----------------| 
F#|---------7--p0h11p0-11p0-----------------| 3x (strum the low G# and the open Eb lightly with your thumb, 
C#|----0h5/7--------------------------------|     use both index fingers to tap on the last double stops.) 
G#|-----------------------------------------| 
D#|3----------------------------------------| 

D#|---------------------------------------| 
A#|------------------7--------------------| 
F#|---------------7p0---------------------|  
C#|----0h5/7--5h7-------------------------|     variation 1  
G#|---------0-----------------------------| 
D#|3--------------------------------------| 


D#|10p7p(2)-------------------------| 
A#|--------10p7p(2)-----------------|        
F#|----------------9p7--------------|         variation 2  
C#|-------------------(10)p9--------|                        
G#|---------------------------------|                        
D#|---------------------------------| 


D#|-------------------------| 
A#|-------------------------| 
F#|-------------------------| 
C#|-----99999999-77777777-5-| 
G#|-----xxxxxxxx-xxxxxxxx-x-| 
D#|-----88888888-77777777-5-| 
looking down on me 
  

D#|5/7-777--2-2222222--5/7-777--1-111111111111-------------------------------| 
A#|0-0-000--0-0000000--0-0-000--0-0-0-0-0-0-0--------------------------------| 
F#|5/7-777--2-2222222--5/7-777--1-111111111111-------------------------------| 
C#|0-0-000--0-0000000--0-0-000--0-0-0-0-0-0-0--------------------------------| 
G#|--------------------------------------------------------------------------| 
D#|--------------------------------------------------------------------------| 
  
D#|5/7--77----12-10-1010101010-------------------------------------------------| 
A#|0-0--00----0--0--0-0-0-0-0---0000000-00000000-------------------------------| 
F#|5/7--77----12-11-1111111111--9999999-55555555-------------------------------| 
C#|0-0--00----0--0--0-0-0-0-0---0000000-00000000-------------------------------| 
G#|----------------------------------------------------------------------------| 
D#|----------------------------------------------------------------------------|  
  

top 5 | jank
top rock'n roll
Outras músicas do artista letras do(a) JANK
Top cifras »Top artistas »
Petaxxon Comunicação Online
Cifras.com.br - Melhor e mais completo site de cifras e tablaturas do Brasil
Mais de 1 milhão de acordes de músicas cadastradas desde 2003
As informações contidas no nosso site são colaborações de seus usuários e podem conter erros, sendo assim, não nos responsabilizamos sobre nenhuma destas.
close
menos
mais
close
Cor dos acordes:

Cor da letra:

 

save
close
close
 
redimensionar