Cifras e Tablaturas
JANK

JANK

J A N K

Cifras Cancelar Versão de Impressão
cifras

JANK - J A N K

fixar na tela  
Exibindo: vídeo-aula ver clipes redimensionar

Tom:

C#

ver outros tons
  
Intro  
D#|---------------------------------0-x-x-x------------------------------------0-x-x-x-x-x----| 
A#|---------------------------------0-5-5-5------------------------------------0-5-5-5-5-5----| 
F |--7-7-7-7-7-7-7---11--11---6--6--0-0-0-0-----7-7-7-7-7-7-7---11--11---6--6--0-0-0-0-0-0----| 
C#|--7-7-7-7-7-7-7---11--11---6--6--0-4-4-4-----7-7-7-7-7-7-7---11--11---6--6--0-4-4-4-4-4----| 
G#|--x-x-x-x-x-x-x---x---x----x--x--0-5-5-5-----x-x-x-x-x-x-x---x---x----x--x--0-5-5-5-5-5----| 
C#|--7-7-7-7-7-7-7---11--11---6--6--0-0-0-0-----7-7-7-7-7-7-7---11--11---6--6--0-0-0-0-0-0----| 


Verse 
"Wakey, wakey eggs and bakey" 
D#|-----------------------------------x------------| 
A#|-----------------------------------5-5s7--------| 
F |--7-7-7-7-7-7-7---11--11---6--6--0-0-----5s7(0)-| 
C#|--7-7-7-7-7-7-7---11--11---6--6--0-4------------| 
G#|--x-x-x-x-x-x-x---x---x----x--x--0-5------------| 
C#|--7-7-7-7-7-7-7---11--11---6--6--0-0------------| 

"Don't let mother see you taking" 
D#|-----------------------------------x------------| 
A#|-----------------------------------5-5s7--------| 
F |--7-7-7-7-7-7-7---11--11---6--6--0-0-----5s7(0)-| 
C#|--7-7-7-7-7-7-7---11--11---6--6--0-4------------| 
G#|--x-x-x-x-x-x-x---x---x----x--x--0-5------------| 
C#|--7-7-7-7-7-7-7---11--11---6--6--0-0------------| 

"Every single piece of broccoli" 
D#|-----------------------------------x------------| 
A#|-----------------------------------5-5s7--------| 
F |--7-7-7-7-7-7-7---11--11---6--6--0-0-----5s7(0)-| 
C#|--7-7-7-7-7-7-7---11--11---6--6--0-4------------| 
G#|--x-x-x-x-x-x-x---x---x----x--x--0-5------------| 
C#|--7-7-7-7-7-7-7---11--11---6--6--0-0------------| 

"Say hello to mephistopheles" 
D#|-----------------------------------x-----------x------5s7p0-x------------x------5s7-s9-9-9-9-| 
A#|-----------------------------------5-5s7-------5-55s7-------5-55s7-------5-55s7------0-0-0-0-| 
F |--7-7-7-7-7-7-7---11--11---6--6--0-0-----5s7p0-0------------0------5s7p0-0-----------0-0-0-0-| 
C#|--7-7-7-7-7-7-7---11--11---6--6--0-4-----------4------------4------------4-----------0-0-0-0-| 
G#|--x-x-x-x-x-x-x---x---x----x--x--0-5-----------5------------5------------5-----------0-0-0-0-| 
C#|--7-7-7-7-7-7-7---11--11---6--6--0-0-----------0------------0------------0-----------0-0-0-0-| 

D#|10-10-10-10-10-10-12-12-12-12-12-12-12----------12-12-12-12-12-| 
A#|0--0--0--0--0--0--0--0--0--0--0--0--0-----------0--0--0--0--0--| 
F |0--0--0--0--0--0--0--0--0--0--0--0--0-----------0--0--0--0--0--| 
C#|0--0--0--0--0--0--0--0--0--0--0--0--0-----------0--0--0--0--0--| 
G#|0--0--0--0--0--0--0--0--0--0--0--0--0-----------0--0--0--0--0--| 
C#|0--0--0--0--0--0--0--0--0--0--0--0--0-----------0--0--0--0--0--| 
     

"This is a ripoff of a title fight song" 
D#|------------------x-------------------x---0---0---0---0-0-xx--0---0-0-0-0-0-0-xx--| 
A#|------------------x-------------------x---5---5---5---5-5-x4--5---5-5-5-5-5-5-x4--| 
F |--7---7---7---7-7-x6--7---7---7---7-7-x6--0---0---0---0-0-x0--0---0-0-0-0-0-0-x0--| 
C#|--7---7---7---7-7-x6--7---7---7---7-7-x6--4---4---4---4-4-x2--4---4-4-4-4-4-4-x2--| 
G#|--x---x---x---x-x-xx--x---x---x---x-x-xx--5---5---5---5-5-x4--5---5-5-5-5-5-5-x4--| 
C#|--7---7---7---7-7-x6--7---7---7---7-7-x6--0---0---0---0-0-xx--0---0-0-0-0-0-0-xx--| 

"Could you spare some change? My uncle is in the hospital, underwater" 
D#|------------------x-------------------x---0---0---0-0-0-0-xx--0---0---0-0-0-0-0-0-| 
A#|------------------x-------------------x---5---5---5-5-5-5-x4--5---5---5-5-5-5-5-5-| 
F |--7---7---7-7-7-7-x6--7---7---7-7-7-7-x6--0---0---0-0-0-0-x0--0---0---0-0-0-0-0-0-| 
C#|--7---7---7-7-7-7-x6--7---7---7-7-7-7-x6--4---4---4-4-4-4-x2--4---4---4-4-4-4-4-4-| 
G#|--x---x---x-x-x-x-xx--x---x---x-x-x-x-xx--5---5---5-5-5-5-x4--5---5---5-5-5-5-5-5-| 
C#|--7---7---7-7-7-7-x6--7---7---7-7-7-7-x6--0---0---0-0-0-0-xx--0---0---0-0-0-0-0-0-| 

D#|---------------------------x----------------------------x---0---0---0-0-0-0-xx--0---0---0-0-0-0-0-0-| 
A#|---------------------------x----------------------------x---5---5---5-5-5-5-x4--5---5---5-5-5-5-5-5-| 
F |--7--7--7--7--7-7-7-7-7--7-x6--7--7--7--7--7-7-7-7-7--7-x6--0---0---0-0-0-0-x0--0---0---0-0-0-0-0-0-| 
C#|--7--7--7--7--7-7-7-7-7--7-x6--7--7--7--7--7-7-7-7-7--7-x6--4---4---4-4-4-4-x2--4---4---4-4-4-4-4-4-| 
G#|--x--x--x--x--x-x-x-x-x--x-xx--x--x--x--x--x-x-x-x-x--x-xx--5---5---5-5-5-5-x4--5---5---5-5-5-5-5-5-| 
C#|--7--7--7--7--7-7-7-7-7--7-x6--7--7--7--7--7-7-7-7-7--7-x6--0---0---0-0-0-0-xx--0---0---0-0-0-0-0-0-| 

D#|---------------------------x----------------------------x---0---0---0-0-0-0-xx--0---0---0-0-0-0-0-0-| 
A#|---------------------------x----------------------------x---5---5---5-5-5-5-x4--5---5---5-5-5-5-5-5-| 
F |--7--7--7--7--7-7-7-7-7--7-x6--7--7--7--7--7-7-7-7-7--7-x6--0---0---0-0-0-0-x0--0---0---0-0-0-0-0-0-| 
C#|--7--7--7--7--7-7-7-7-7--7-x6--7--7--7--7--7-7-7-7-7--7-x6--4---4---4-4-4-4-x2--4---4---4-4-4-4-4-4-| 
G#|--x--x--x--x--x-x-x-x-x--x-xx--x--x--x--x--x-x-x-x-x--x-xx--5---5---5-5-5-5-x4--5---5---5-5-5-5-5-5-| 
C#|--7--7--7--7--7-7-7-7-7--7-x6--7--7--7--7--7-7-7-7-7--7-x6--0---0---0-0-0-0-xx--0---0---0-0-0-0-0-0-| 

D#|----------------------------------------------------------------------------------| 
A#|----------------------------------------------------------------------------------| 
F |----------------------------------------------------------------------------------| 
C#|----------------------------------------------------------------------------------| x2 
G#|----------------------------------------------------------------------------------| 
C#|--7----11--11--0--4----4--4--0--2---2s--7----11--11--0--4----4--4--0--6b----------| 

D#|----------------------------------------------------------------------------------| 
A#|----------------------------------------------------------------------------------| 
F |----------------------------------------------------------------------------------| 
C#|--7----11--11--0--4----4--4--0--2---2s--7----11--11--0--4----4--4--0--6--6--6--6--| 
G#|--7----11--11--0--4----4--4--0--2---2s--7----11--11--0--4----4--4--0--6--6--6--6--| 
C#|--7----11--11--0--4----4--4--0--2---2s--7----11--11--0--4----4--4--0--6--6--6--6--| 

D#|--0----x----0----x----0----x----0----x9-9-9-0----x----0----x----0----x----0----x9-9-9-9| 
A#|--3s5--x----3s5--x----3s5--x----3s5--x0-0-0-3s5--x----3s5--x----3s5--x----3s5--x0-0-0-0| 
F |--0----x----0----2b---0----x----0----x0-0-0-0----x----0----2b---0----x----0----x0-0-0-0| 
C#|--0----x----0----x----0----x----0----x0-0-0-0----x----0----x----0----x----0----x0-0-0-0| 
G#|--5s7--x----5s7--x----5s7--x----5s7--x0-0-0-5s7--x----5s7--x----5s7--x----5s7--x0-0-0-0| 
C#|--0----x----0----x----0----x----0----x0-0-0-0----x----0----x----0----x----0----x0-0-0-0| 

The rest of the song is followed by random screams and random guitar sounds. Except the outro which is  
similar to the beginning of the song. 
  

top 5 | jank
top rock'n roll
Outras músicas do artista letras do(a) JANK
Top cifras »Top artistas »
Petaxxon Comunicação Online
Cifras.com.br - Melhor e mais completo site de cifras e tablaturas do Brasil
Mais de 1 milhão de acordes de músicas cadastradas desde 2003
As informações contidas no nosso site são colaborações de seus usuários e podem conter erros, sendo assim, não nos responsabilizamos sobre nenhuma destas.
close
menos
mais
close
Cor dos acordes:

Cor da letra:

 

save
close
close
 
redimensionar