Cifras e Tablaturas
JANK

JANK

Spilt To Bill

Cifras Cancelar Versão de Impressão

JANK - Spilt To Bill

Tom:

  			
Intro 

eb|----------------------------------------------------0~~~~~~~----------------| 
Bb|------------7-------------7-------------7b8b7p0-------0~~~~~----------------| 
Gb|--------7-9-0---------7-9-0---------7-9---------0h7-----7~~~----------------| 
Db|---9--9----------9--9----------9--9-----------------------------------------| 
Gb|---0-------------0-------------0--------------------------------------------| 
Eb|----------------------------------------------------------------------------| 


eb|-------------------------------------------------------har7-----------------| 
Bb|------------7-------------7-------------7b8b7p0------------har7-------------| 
Gb|--------7-9-0---------7-9-0---------7-9---------0h7-------------------------| 
Db|---9--9----------9--9----------9--9-----------------------------------------| 
Gb|---0-------------0-------------0--------------------------------------------| 
Eb|----------------------------------------------------------------------------| 


eb|----------------------------------------------------0~~~~~~~----------------| 
Bb|------------7-------------7-------------7b8b7p0-------0~~~~~----------------| 
Gb|--------7-9-0---------7-9-0---------7-9---------0h7-----7~~~----------------| 
Db|---9--9----------9--9----------9--9-----------------------------------------| 
Gb|---0-------------0-------------0--------------------------------------------| 
Eb|----------------------------------------------------------------------------| 

  
eb|----------------------------------------------------0~~~~~~~~---------------| 
Bb|------------7-------------7-------------7b8b7p0-------7~~~~~~---------------| 
Gb|--------7-9-0---------7-9-0---------7-9---------0h7-----9~~~~---------------| 
Db|---9--9----------9--9----------9--9-----------------------------------------| 
Gb|---0-------------0-------------0--------------------------------------------| 
Eb|----------------------------------------------------------------------------| 


eb|----------------------------------------7-7-7-7-5-5-5-5-5-5-----------------| 
Bb|------------7-------------7-------------0-0-0-0-0-0-0-0-0-0-----------------| 
Gb|--------7-9-0---------7-9-0---------7-9-0-0-0-0-0-0-0-0-0-0-----------------| 
Db|---9--9----------9--9----------9--9-----0-0-0-0-0-0-0-0-0-0-----------------| 
Gb|---0-------------0-------------0--------0-0-0-0-0-0-0-0-0-0-----------------| 
Eb|----------------------------------------------------------------------------| 


eb|----------------------------------------7-7-7-7-7-7-7-7-7-7-7-7---------------| 
Bb|------------7-------------7-------------7-7-7-7-7-7-7-7-7-7-7-7---------------| 
Gb|--------7-9-0---------7-9-0---------7-9-0-0-0-0-0-0-0-0-0-0-0-0---------------| 
Db|---9--9----------9--9----------9--9-----0-0-0-0-0-0-0-0-0-0-0-0---------------| 
Gb|---0-------------0-------------0--------x-x-x-x-x-x-x-x-x-x-x-x---------------| 
Eb|----------------------------------------7-7-7-7-7-7-7-7-7-7-7-7---------------| 
  

1st Verse 

eb|------------------------------------------------------------------------------| 
Bb|------------------------------------------------------------------------------| 
Gb|--9~~9-9-9-9-9-9-9-9-9-9-9-9-9-9--7-7-7-7-7-7-7-7-7-7-7-7-7-------------------| 
Db|--9~~9-9-9-9-9-9-9-9-9-9-9-9-9-9--7-7-7-7-7-7-7-7-7-7-7-7-7-------------------| 
Gb|--x~~x-x-x-x-x-x-x-x-x-x-x-x-x-x--x-x-x-x-x-x-x-x-x-x-x-x-x-------------------| 
Eb|--8~~8-8-8-8-8-8-8-8-8-8-8-8-8-7~~7-7-7-7-7-7-7-7-7-7-7-7-7-------------------| 


eb|------------------------------------------------------------------------------| 
Bb|---------------------------------7-7-7-7-7-7-7-7-7-8-8-8-8-8-8-8-8------------| 
Gb|--9~~9-9-9-9-9-9-9-9-9-9-9-9-9-9-7-7-7-7-7-7-7-7-7-7-7-7-7-7-7-7-7------------| 
Db|--9~~9-9-9-9-9-9-9-9-9-9-9-9-9-9-x-x-x-x-x-x-x-x-x-x-x-x-x-x-x-x-x------------| 
Gb|--x~~x-x-x-x-x-x-x-x-x-x-x-x-x-x-7-7-7-7-7-7-7-7-7-7-7-7-7-7-7-7-7------------| 
Eb|--8~~8-8-8-8-8-8-8-8-8-8-8-8-8-7----------------------------------------------| 

Play first verse twice 


Chorus 

eb|----------------------------------------------------0~~~~~~~----------------| 
Bb|------------7-------------7-------------7b8b7p0-------0~~~~~----------------| 
Gb|--------7-9-0---------7-9-0---------7-9---------0h7-----7~~~----------------| 
Db|---9--9----------9--9----------9--9-----------------------------------------| 
Gb|---0-------------0-------------0--------------------------------------------| 
Eb|----------------------------------------------------------------------------| 



eb|----------------------------------------0-0-0-0-0-0-0-0-0-0-----------------| 
Bb|------------7-------------7-------------0-0-0-0-0-0-0-0-0-0-----------------| 
Gb|--------7-9-0---------7-9-0---------7-9-7-7-7-7-7-7-7-7-7-7-----------------| 
Db|---9--9----------9--9----------9--9-----9-9-9-9-9-9-9-9-9-9-----------------| 
Gb|---0-------------0-------------0--------x-x-x-x-x-x-x-x-x-x-----------------| 
Eb|----------------------------------------8-8-8-8-8-8-8-8-8-8-----------------| 
  

2nd Verse 


eb|--0~~~~0~~~~0~~~~0-0--------------------0----0----0----0-0--------------------| 
Bb|--0~~~~0~~~~0~~~~0-0----------------3h0-0----0----0----0-0--------------------| 
Gb|--7~~~~2~~~~7~~~~4-4--2h4p2p0-----0-----7----2----7----2-2--2h4p2p0-----0-----| 
Db|--9~~~~4~~~~9~~~~2-2----------0h4-------9----4----9----4-4----------0h4---4p0-| 
Gb|--x----x----x----x-x--------------------x----x----x----x-x--------------------| 
Eb|--8~~~~3~~~~8~~~~3-3--------------------8----3----8----3-3--------------------| 


eb|--0~~~~0~~~~0~~~~0-0----------2h3p2p0---------0----0----0----0--0-0-0-0-0----------------| 
Bb|--0~~~~0~~~~0~~~~0-0------------------3/5p0---0----0----0----0--0-0-0-0-0----------------| 
Gb|--7~~~~2~~~~7~~~~4-4--2/4\2p0---------------0-7----2----7----2--2-2-2-2-2/4\2p0----------| 
Db|--9~~~~4~~~~9~~~~2-2--------------------------9----4----9----4--4-4-4-4-4----------------| 
Gb|--x----x----x----x-x--------------------------x----x----x----x--x-x-x-x-x----------------| 
Eb|--8~~~~3~~~~8~~~~3-3--------------------------8----3----8----3--3-3-3-3-3----------------| 

Bridge 

eb|---------------0~~~~0-0-0---7--5~~~~5-5-5---0~~~~0-0-0---0--0--0----0--0---0---| 
Bb|---------------0~~~~0-0-0---7--5~~~~5-5-5---0~~~~0-0-0---0--0--0----0--0---0---| 
Gb|--7~~~~7-7-7---7~~~~7-7-7---7--5~~~-5-5-5---2~~~~2-2-2---14-14-14---2--14--2---| 
Db|--9~~~~9-9-9---9~~~~9-9-9---7--5~~~~5-5-5---4~~~~4-4-4---16-16-16---4--16--4---| 
Gb|--x----x-x-x---x----x-x-x-------------------x----x-x-x---x--x--x----x--x---x---| 
Eb|--8~~~~8-8-8---8~~~~8-8-8-------------------3~~~~3-3-3---15-15-15---3--15--3---| 

There's bunch of variation on this, just jam it out 

Outro 

eb|----------------------------------------7-7-7-7-7-7-7-7-7-7-7---------------| 
Bb|------------7-------------7-------------7-7-7-7-7-7-7-7-7-7-7---------------| 
Gb|--------7-9-0---------7-9-0---------7-9-0-0-0-0-0-0-0-0-0-0-0---------------| 
Db|---9--9----------9--9----------9--9-----0-0-0-0-0-0-0-0-0-0-0---------------| 
Gb|---0-------------0-------------0--------------------------------------------| 
Eb|----------------------------------------------------------------------------|  


eb|----------------------------------------5-5-5-5-5-5-5-5-5-5-5---------------| 
Bb|------------7-------------7-------------7-7-7-7-7-7-7-7-7-7-7---------------| 
Gb|--------7-9-0---------7-9-0---------7-9-0-0-0-0-0-0-0-0-0-0-0---------------| 
Db|---9--9----------9--9----------9--9-----0-0-0-0-0-0-0-0-0-0-0---------------| 
Gb|---0-------------0-------------0--------------------------------------------| 
Eb|----------------------------------------------------------------------------|  

Again, just jam this part 

eb|----------------------------------------------------------------------------| 
Bb|---0------------------------------------------------------------------------| 
Gb|---0------------------------------------------------------------------------| 
Db|---0------------------------------------------------------------------------| 
Gb|---0------------------------------------------------------------------------| 
Eb|----------------------------------------------------------------------------| 



************************************ 

| b  Bend 
| ~  Vibrato 
| p  Pull-off 
| h  Hammer-on 
| x  Dead note 
| /  Slide up 
| \  Slide down 
  

************************************ 
    	
fixar
fixar inscrever-se

enviado porenviado por: adalgomes
cifra enviadaCorrigida por: sem correções
logo top cifrasComente
ico música do artistaMúsicas deste artista
ico curtiuCurtiu?
ico destaqueDestaque
Petaxxon Comunicação Online

Cifras.com.br - Melhor e mais completo site de cifras e tablaturas do Brasil Mais de 1 milhão de acordes de músicas cadastradas desde 2003
As informações contidas no nosso site são colaborações de seus usuários e podem conter erros, sendo assim, não nos responsabilizamos sobre nenhuma destas.

close
menos
mais
close
Cor dos acordes:

Cor da letra:

close
Alinhar acordes a direita Alinhar acordes a esquerda Alinhar acordes em baixo Alinhar acordes no topo
close
  Mostrar todos os acordes Esconder acordes muito fáceis Esconder acordes fáceis Esconder acordes intermediários
redimensionar
glossário