Cifras e Tablaturas
Jay Som

Jay Som

Baybee

Cifras Cancelar Versão de Impressão
cifras

Jay Som - Baybee

fixar na tela  
Exibindo: vídeo-aula ver clipes redimensionar

Tom:

   
Capo 3  

Intro 
Guitar 1 
Sweep the last chord 
e|----4-4-----4-4----7---|---------------------------------------------| 
B|----5-5-----4-4----8---|---0---------0-------------------------------| 
G|----6-6-----4-4----9---|---3--3----3---3-----------------------------| 
D|----6-6-----6-6----9---|---4----4--4-----4---------------------------| 
A|----4-4-----6-6----7---|---4-------4---------------------------------| 
E|------------4-4--------|---2-------2---------------------------------| 

Guitar 2 (synth in the studio version, guitar on the live version) 
e|----------------------------|----------------------------------------| 
B|----------------------------|----------------------------------------| 
G|--------------------9---11--|-------------------9--9h11p9------------| 
D|------------9---11----------|-----------9---12-----------------------| 
A|---5/9--12------------------|--5/9--12-------------------------------| 
E|----------------------------|----------------------------------------| 

e|----------------------------|----------------------------------------| 
B|----------------------------|----------------------------------------| 
G|--------------------9---11--|-------------------9--9h11p9------------| 
D|------------9---11----------|-----------9---12-----------------------| 
A|---5/9--12------------------|--5/9--12-------------------------------| 
E|----------------------------|----------------------------------------| 

e|----------------------------|----------------------------------------| 
B|----------------------------|----------------------------------------| 
G|--------------------9---11--|-------------------9--9h11p9------------| 
D|------------9---11----------|-----------9---12-----------------------| 
A|---5/9--12------------------|--5/9--12-------------------------------| 
E|----------------------------|----------------------------------------| 

e|----------------------------|----------------------------------------| 
B|----------------------------|----------------------------------------| 
G|--------------------9---11--|-------------------9--9h11p9------------| 
D|------------9---11----------|-----------9---12-----------------------| 
A|---5/9--12------------------|--5/9--12-------------------------------| 
E|----------------------------|----------------------------------------| 

verse 1 
Guitar 1 
You're content with what you have 
e|----4------4--7------|---0----------------------------------------| 
B|----5------4--8------|---0----------------------------------------| 
G|----6------4--9------|---3----------------------------------------| 
D|----6------6--9------|---4----------------------------------------| 
A|----4------6--7------|---4----------------------------------------| 
E|-----------4---------|---2----------------------------------------| 

With your hands tied behind your back 
e|----4------4--7------|---0----------------------------------------| 
B|----5------4--8------|---0----------------------------------------| 
G|----6------4--9------|---3----------------------------------------| 
D|----6------6--9------|---4----------------------------------------| 
A|----4------6--7------|---4----------------------------------------| 
E|-----------4---------|---2----------------------------------------| 

Guitar 2 
I know 
e|--------------------------|---------------------------------------| 
B|--------------------------|---------------------------------------| 
G|--------------------------|-------------------------------7-6-----| 
D|--------------------------|------------------------7-5\4----------| 
A|--------5/7-5-------5/7-5-|-----------7/9-7-----------------------| 
E|--3-3-3-------3-3-3-------|-3-3-5-5-5-------5-5-5-----------------| 

You know 
e|--------------------------|---------------------------------------| 
B|--------------------------|---------------------------------------| 
G|--------------------------|---------------------------------------| 
D|--------------------------|---------------------------------------| 
A|--------5/7-5-------5/7-5-|---------------------------------------| 
E|--3-3-3-------3-3-3-------|-3-3-5--------------------------------| 

Chorus 1 
Same chords as before but in a different order 
Guitar 1 
     If I leave you alone 
e|----4---------4----0--|---0----------------------------------------| 
B|----4---------5----0--|---0----------------------------------------| 
G|----4---------6----3--|---3----------------------------------------| 
D|----6---------6----4--|---4----------------------------------------| 
A|----6---------4----4--|---4----------------------------------------| 
E|----4--------------2--|---2----------------------------------------| 

When you don't feel right 
e|----7--------------|-------------------------------------------| 
B|----8--------------|-------------------------------------------| 
G|----9--------------|-------------------------------------------| 
D|----9--------------|-------------------------------------------| 
A|----7--------------|-------------------------------------------| 
E|-------------------|-------------------------------------------| 

I know we'll sink for sure 
e|----4---------4----0--|---0----------------------------------------| 
B|----4---------5----0--|---0----------------------------------------| 
G|----4---------6----3--|---3----------------------------------------| 
D|----6---------6----4--|---4----------------------------------------| 
A|----6---------4----4--|---4----------------------------------------| 
E|----4--------------2--|---2----------------------------------------| 

e|----7--------------|-------------------------------------------| 
B|----8--------------|-------------------------------------------| 
G|----9--------------|-------------------------------------------| 
D|----9--------------|-------------------------------------------| 
A|----7--------------|-------------------------------------------| 
E|-------------------|-------------------------------------------| 

I'll play your game once more 
e|----4---------4----0--|---0----------------------------------------| 
B|----4---------5----0--|---0----------------------------------------| 
G|----4---------6----3--|---3----------------------------------------| 
D|----6---------6----4--|---4----------------------------------------| 
A|----6---------4----4--|---4----------------------------------------| 
E|----4--------------2--|---2----------------------------------------| 

If you don't feel right 
e|----7--------------|-------------------------------------------| 
B|----8--------------|-------------------------------------------| 
G|----9--------------|-------------------------------------------| 
D|----9--------------|-------------------------------------------| 
A|----7--------------|-------------------------------------------| 
E|-------------------|-------------------------------------------| 

e|----4---------4----0--|---0----------------------------------------| 
B|----4---------5----0--|---0----------------------------------------| 
G|----4---------6----3--|---3----------------------------------------| 
D|----6---------6----4--|---4----------------------------------------| 
A|----6---------4----4--|---4----------------------------------------| 
E|----4--------------2--|---2----------------------------------------| 

e|----7--------------|-------------------------------------------| 
B|----8--------------|-------------------------------------------| 
G|----9--------------|-------------------------------------------| 
D|----9--------------|-------------------------------------------| 
A|----7--------------|-------------------------------------------| 
E|-------------------|-------------------------------------------| 

If you don't feel right 
e|----0--------------|-------------------------------------------| 
B|----0--------------|-------------------------------------------| 
G|----3--------------|-------------------------------------------| 
D|----4--------------|-------------------------------------------| 
A|----4--------------|-------------------------------------------| 
E|----2--------------|-------------------------------------------| 

Guitar 2 (synth) 
(play throughout the Chorus, 4x) 
e|-----------------|---------------------------------------------| 
B|-----------------|---------------------------------------------| 
G|-----------14----|---------14----------------------------------| 
D|-----16-14----14-|---16-14-------14----------------------------| 
A|-----------------|------------16-------------------------------| 
E|-----------------|---------------------------------------------| 

Interlude 
Guitar 1 - intro chords repeated 4x 
e|----4-4-----4-4----7---|---------------------------------------------| 
B|----5-5-----4-4----8---|---0---------0-------------------------------| 
G|----6-6-----4-4----9---|---3--3----3---3-----------------------------| 
D|----6-6-----6-6----9---|---4----4--4-----4---------------------------| 
A|----4-4-----6-6----7---|---4-------4---------------------------------| 
E|------------4-4--------|---2-------2---------------------------------| 

Guitar 2 
e|----5------------|---------------| 
B|------7-5--------|---------------| 
G|----------7-6-7-9|------7-----7--| 
D|-----------------|--7/9---7/9----| 
A|-----------------|---------------| 
E|-----------------|---------------| 

e|----5------------|-----------------------| 
B|------7-5--------|-----------------------| 
G|----------7-6-7-9|--7h9-9-6h7-7-6-6br----| 
D|-----------------|-----------------------| 
A|-----------------|-----------------------| 
E|-----------------|-----------------------| 

e|----5------------|-------------------| 
B|------7-5--------|--------------10---| 
G|----------7-6-7-9|------7---9/11--11-| 
D|-----------------|--7/9--------------| 
A|-----------------|-------------------| 
E|-----------------|-------------------| 

e|----5------------|---5---5--9--7--5----------5| 
B|------7-5--------|-7---7-------------7--5-----| 
G|----------7-6-7-9|------------------------7---| 
D|-----------------|----------------------------| 
A|-----------------|----------------------------| 
E|-----------------|----------------------------| 

Bridge 
Guitar 2 
               Sweetheart,         listen 
e|----------------------------------------------| 
B|----------------------------------------------| 
G|----------------------------------------------| 
D|----------------------------------------------| 
A|----------------------------------------------| 
E|--3-3-3-3------0-3-4-5-5-5-5------------------| 

               Make up        your mind 
e|--------------------------------------| 
B|--------------------------------------| 
G|--------------------------------------| 
D|--------------------------------------| 
A|--------------------9-8-7-7-7-7-------| 
E|--0-5-6-7-7-7-7---7-------------------| 

            Whatever           helps you sleep 
e|----------------------------------------------| 
B|----------------------------------------------| 
G|----------------------------------------------| 
D|----------------------------------------------| 
A|----------------------------------------------| 
E|--3-3-3-3------0-3-4-5-5-5-5------------------| 

               In the night 
e|--------------------------------------| 
B|--------------------------------------| 
G|--------------------------------------| 
D|--------------------------------------| 
A|--------------------9-8-7-7-7-7-------| 
E|--0-5-6-7-7-7-7---7-------------------| 

Pieces won’t mend back together That's a shame 
e|----------------------------------------------| 
B|----------------------------------------------| 
G|----------------------------------------------| 
D|----------------------------------------------| 
A|----------------------------------------------| 
E|--3-3-3-3------0-3-4-5-5-5-5------------------| 

You shaved off parts of me I must erase 
e|--------------------------------------| 
B|--------------------------------------| 
G|--------------------------------------| 
D|--------------------------------------| 
A|--------------------9-8-7-7-7-7-------| 
E|--0-5-6-7-7-7-7---7-------------------| 

Cause I know        you know 
e|----------------------------------------------| 
B|----------------------------------------------| 
G|----------------------------------------------| 
D|----------------------------------------------| 
A|----------------------------------------------| 
E|--3-3-3-3------0-3-4-5-5-5-5------------------| 

I know 
e|--------------------------------------| 
B|--------------------------------------| 
G|--------------------------------------| 
D|--------------------------------------| 
A|--------------------------------------| 
E|--0-5-6-7-7-7-7---7-------------------| 

Guitar 1 (played at the very end of verse) 
e|----4---| 
B|----4---| 
G|----4---| 
D|----6---| 
A|----6---| 
E|----4---| 

Chrous 2  
Guitar 2  
If I leave you alone when you dont feel right 
e|-----------------|---------------------------------------| 
B|-----------------|---------------------------------------| 
G|----------2------|-------2-------------------------------| 
D|-----4-2----2----|---4-2-----2---------------------------| 
A|-----------------|---------4-----------------------------| 
E|-----------------|---------------------------------------| 

         I know we'll sink for sure 
e|-----------------|---------------------------------------| 
B|-----------------|---------------------------------------| 
G|----------2------|-------2-------------------------------| 
D|-----4-2----2----|---4-2-----2---------------------------| 
A|-----------------|---------4-----------------------------| 
E|-----------------|---------------------------------------| 

I'll play your game once more if you dont feel right 
(jump to higher key) 
e|-----------------|---------------------------------------------| 
B|-----------------|---------------------------------------------| 
G|-----------14----|---------14----------------------------------| 
D|-----16-14----14-|---16-14-------14----------------------------| 
A|-----------------|------------16-------------------------------| 
E|-----------------|---------------------------------------------| 

                  If you don't feel right 
e|------------------|---------------------------------------------| 
B|------------------|---------------------------------------------| 
G|-----------14-----|---------14----------------------------------| 
D|-----16-14-----14-|---16-14-------14----------------------------| 
A|------------16----|------------16-------------------------------| 
E|------------------|---------------------------------------------| 

Outro 
If you don't feel right x 4  
Guitar 1 (same as Chorus) 
e|----4---------4----0--|---0----7------------------------------------| 
B|----4---------5----0--|---0----8------------------------------------| 
G|----4---------6----3--|---3----9------------------------------------| 
D|----6---------6----4--|---4----9------------------------------------| 
A|----6---------4----4--|---4----7------------------------------------| 
E|----4--------------2--|---2-----------------------------------------| 

Guitar 2 repeat to fade x2 
e|----5------------|---------------| 
B|------7-5--------|---------------| 
G|----------7-6-7-9|------7-----7--| 
D|-----------------|--7/9---7/9----| 
A|-----------------|---------------| 
E|-----------------|---------------| 

e|----5------------|-----------------------| 
B|------7-5--------|-----------------------| 
G|----------7-6-7-9|--7h9-9-6h7-7-6-6br------| 
D|-----------------|-----------------------| 
A|-----------------|-----------------------| 
E|-----------------|-----------------------| 

e|----5------------|-------------------| 
B|------7-5--------|--------------10---| 
G|----------7-6-7-9|------7---9/11--11-| 
D|-----------------|--7/9--------------| 
A|-----------------|-------------------| 
E|-----------------|-------------------| 

e|----5------------|---5---5--9--7--5----------5-| 
B|------7-5--------|-7---7-------------7--5----7-| 
G|----------7-6-7-9|------------------------7--6-| 
D|-----------------|-----------------------------| 
A|-----------------|-----------------------------| 
E|-----------------|-----------------------------| 



******************** 

| /  slide up 
| \  slide down 
| h  hammer-on 
| p  pull-off 
| br 1 note bend 

******************** 
  

top 5 | jay som
top rock'n roll
Outras músicas do artista letras do(a) Jay Som
Top cifras »Top artistas »
Petaxxon Comunicação Online
Cifras.com.br - Melhor e mais completo site de cifras e tablaturas do Brasil
Mais de 1 milhão de acordes de músicas cadastradas desde 2003
As informações contidas no nosso site são colaborações de seus usuários e podem conter erros, sendo assim, não nos responsabilizamos sobre nenhuma destas.
close
menos
mais
close
Cor dos acordes:

Cor da letra:

 

save
close
close
 
redimensionar