Cifras e Tablaturas
Jay Som

Jay Som

The Bus Song

Cifras Cancelar Versão de Impressão
cifras

Jay Som - The Bus Song

fixar na tela  
Exibindo: vídeo-aula ver clipes redimensionar
  

Intro 
e|-----------------------------| 
B|-----------------------------| 
G|-----------------------------| 
D|-----------------------------| 
A|-9-9/11-11-4-4/6-6-----------| 
E|-0-0--0-0--2-2/4-4-----------| x8  

e|-------------------| 
B|-------------------| 
G|-------------------| 
D|-------------------| 
A|-9-9/11-11---------| 
E|-0-0--0-0----------| 

E F# G#m x4 

Verse 
"Why don't we take the bus?..." 
e|-----------------------------| 
B|-----------------------------| 
G|-----------------------------| 
D|-----------------------------| 
A|-9-9/11-11-4-4/6-6-----------| 
E|-0-0--0-0--2-2/4-4-----------| x4 

E 
(After "I can be whoever I want to be...") 

Chorus 
                       F# G#m B 
Take time to figure it out 
                            F# G#m B 
I'll be the one who sticks around 
                       F# G#m B 
And I just want you to leeead me 
                       F#    A 
And I just want you to neeeed me 

e|-----------------------------| 
B|-----------------------------| 
G|-----------------------------| 
D|-----------------------------| 
A|-9-9/11-11-4-4/6-6-----------| 
E|-0-0--0-0--2-2/4-4-----------| x4  

No guitar during the "My sister knows..." part, but you can continue playing the tab if you'd like. 

Bridge 
"Are secrets still a thing?..." 
e|-----------------------------| 
B|-----------------------------| 
G|-----------------------------| 
D|-----------------------------| 
A|-9-9/11-11-4-4/6-6-----------| 
E|-0-0--0-0--2-2/4-4-----------| x8 

E 
I can't tell you anything... 

Chorus 
                       F# G#m B 
Take time to figure it out 
                            F# G#m B 
I'll be the one who sticks around 
                       F# G#m B 
And I just want you to leeead me 
                       F# G#m B 
And I just want you to neeeed me 
                       F# G#m B 
And I just want you to leeead me 
                       F# G#m B 
And I just want you to neeeed me 
                       F# G#m B 
And I just want you to... 

Hold B until the break. 

Outro 
e|-----------------------------| 
B|-----------------------------| 
G|-----------------------------| 
D|-----------------------------| 
A|-9-9/11-11-4-4/6-6-----------| 
E|-0-0--0-0--2-2/4-4-----------| x12 

e|-----------| 
B|-----------| 
G|-----------| 
D|-----------| 
A|-9-9/11-11-| 
E|-0-0--0-0--| 



************************************ 

| /  Slide up 

************************************ 
  

cifra enviadasem correções
enviado porenviada por:edsooliveira
top 5 | jay som
top rock'n roll
Outras músicas do artista letras do(a) Jay Som
Top cifras »Top artistas »
Petaxxon Comunicação Online
Cifras.com.br - Melhor e mais completo site de cifras e tablaturas do Brasil
Mais de 1 milhão de acordes de músicas cadastradas desde 2003
As informações contidas no nosso site são colaborações de seus usuários e podem conter erros, sendo assim, não nos responsabilizamos sobre nenhuma destas.
close
menos
mais
close
Cor dos acordes:

Cor da letra:

 

save
close
close
 
redimensionar