Cifras e Tablaturas
Jeff Buckley

Jeff Buckley

I Know It's Over

Cifras Cancelar Versão de Impressão
cifras

Jeff Buckley - I Know It's Over

fixar na tela  
Exibindo: vídeo-aula ver clipes redimensionar
  
Intro 

Play with the fingers, with lots of reverb. 

e|----0--0-0-0-0-7-|-7-7-7-7-7-|-0-0-0-0-0-0--7-7-7-7-7-7-8p7-|-7-7-7-7-7-7-7-7-7-7-7-| 
B|----0--1-7-8-7-8-|-8-8-8-8-8-|-1-3-5-7-8-10-8-8-8-8-8-8-8---|-8-8-8-8-8-7/8-8-8-8-8-| 
G|-6-------------9-|-9-9-9-9-9-|-2-4-5-7-9-11-9-9-9-9-9-9-9---|-9-9-9-9-9-8/9-9-9-9-9-| 
D|-0--0--0-0-0-0-0-|-0-0-0-0---|-0-0-0-0----------------------|-----0-----------------| 
A|-0---------------|-----------|------------------------------|-----------------------| 
E|-----------------|-----------|------------------------------|-----------------------| 

e|-0--0--0--0--0--0-|-0--0--0--0--0--0--|-0--0--0--0--0--0--|-0------------------------| 
B|-8--8--8--8--8--8-|-10-10-10-10-10-10-|-10-10-10-10-10-10-|-10\8-8-8-8-8-8-8-8-8-8-8-| 
G|-9--9--9--9--9--9-|-11-11-11-11-11-11-|-11-11-11-11-11-11-|-11\9-9-9-9-9-9-9-9-9-9-9-| 
D|-10-10-10-10-10-10|-12-12-12-12-12-12-|-12-12-12-12-12-12-|-12-----9-9-9-9-9-9-9-9-9-| 
A|-0----------------|-0-----------------|-0-----------------|--------------------0-----| 
E|------------------|-------------------|-------------------|--------------------------| 

e|-0--0--0--0--0--0--|-0--0--0--0--0--12-|-------12-------12-|-------12-------14-|-------14----------|------| 
B|-8--8--8--8--8--8--|-8--8--8--8--8--8--|-10-10-10-10-10-10-|-10-10-10-10-------|----------------10-|------| 
G|-9--9--9--9--9--9--|-9--9--9--9--9--9--|-------------------|-------------12----|-------------------|------| 
D|-10-10-10-10-10-10-|-10-10-10-10-10-10-|-12-12-12-12-12-12-|-12-12-12-12-12-12-|-12-12-12-12-12----|-12---| 
A|-0-----------------|-------------------|-10-10-10-10-10-10-|-10-10-10-10-10-10-|-10-10-10-10-10----|-10---| 
E|-------------------|-------------------|-------------------|-------------------|-------------------|------| 

Verse 

e|-3----3-----|---3-------3-|-3--3---3-|-------------|-------0-----|-------------|-------2-----| 
B|-3----3-----|---3-------3-|-3--3---3-|-------0-----|-0-----0---3-|-------0-----|-1-------3---| 
G|---4--------|---0-------0-|-0--0---0-|-------0-----|-0-----0---0-|-------0-----|---0-------2-| 
D|------------|-------------|----------|-----2---2---|---2-----2---|-2---2---2---|-----2-0-----| 
A|------------|-----5-------|----------|---2-------2-|-----2-------|---2-------2-|-3-----------| 
E|-3----3-2-0-|-3-----3-3---|-3--3-3-2-|-0-----------|-0-----0-----|-0-----------|-------------| 

e|-3-----3-----|-3-----3-----|-3-----------|-3-----------|-------0-----|-0-----0-------| 
B|---3-----3---|---3-----3---|---3---3-----|-------------|-0-------0---|---0-----0-----| 
G|-----0-----0-|-----0-----0-|-----0---0---|---0---4-----|---0-------0-|-----0-----0---| 
D|-------------|-0-----0-----|-----------0-|-----0---4---|-----2-------|---------------| 
A|-------------|-------------|-2-----------|-------2---2-|-------------|---------------| 
E|-3-----------|-------------|-------3-----|-3-----------|-0-----------|---------------| 

e|-------0-----|-------------|-------3-----|-2-----2-----|-------3-----|-2-----2-------| 
B|-0-------0---|-------3-----|---------1---|---3-----3---|---------1---|---3-----3-----| 
G|---0---0---0-|---0-----0---|---0-------0-|-----2-----2-|---0-------0-|-----2-----2---| 
D|-----2-------|-0---0-----0-|-----2-------|-0-----0-----|-----2-------|-0-----0-------| 
A|-2-----------|-------------|-3-----------|-------------|-3-----------|---------------| 
E|-------------|-------------|-------------|-------------|-------------|---------------| 

e|-------0-----|-0-----0-----|-2-----2-----|-------2-------------------------------| 
B|---------1---|---1-----1---|---3-----3---|-3-------3-----------------------------| 
G|---0-------0-|-----0-----0-|-----2-----2-|---2-------0---------------------------| 
D|-2---2-------|-2-----2-----|-0-----0-----|-0---0-0-------------------------------| 
A|-3-----------|-------------|-------------|---------------------------------------| 
E|-------------|-------------|-------------|---------------------------------------|  
  

top 5 | jeff buckley
top rock alternativo
Outras músicas do artista letras do(a) Jeff Buckley
Top cifras »Top artistas »
Petaxxon Comunicação Online
Cifras.com.br - Melhor e mais completo site de cifras e tablaturas do Brasil
Mais de 1 milhão de acordes de músicas cadastradas desde 2003
As informações contidas no nosso site são colaborações de seus usuários e podem conter erros, sendo assim, não nos responsabilizamos sobre nenhuma destas.
close
menos
mais
close
Cor dos acordes:

Cor da letra:

 

save
close
close
 
redimensionar