Cifras e Tablaturas
Jeff Williams

Jeff Williams

When It Falls

Cifras Cancelar Versão de Impressão
cifras

Jeff Williams - When It Falls

fixar na tela  
Exibindo: vídeo-aula ver clipes redimensionar
  
Tuning Drop D  

Intro: (piano arranged for guitar) 

  Bdim                               C7                            Am      Am7/G   Fmaj7 
 E7sus4 
e--7-8-7---7-8-7---7-8-7---7-8-7---|-6-8-6---6-8-6---6-8-6-------|-----5---7---5---8---7---0----| 
B--6-----6-------6-------6-------6-|-5-----5-------5-------5-----|-5-------5-------5-------3----| 
G--4-------------------------------|-5---------------------------|-5-------5-------5-------2----| 
D----------------------------------|-----------------------------|-7-------5-------3-------2----| 
A----------------------------------|-----------------------------|------------------------------| 
D----------------------------------|-----------------------------|------------------------------| 


Verse: 
       N.C.  (Dm) 
e-----|--------------------------|--------------------------------------| 
B-----|--------------------------|--------------------------------------| 
G-----|--------------------------|--------------------------------------| 
D-----|--------------------------|--------------------------------------| 
A-5-3-|5-------------------------|----------------------------------5-3-| 
D-----|----0-0-0-0-0-0-0-0-0-0-0-|3-5-6-5---3-0-0-0-0-0-0-0-0-0-0-0-----| 

e-------------------------------------------------------------| 
B-------------------------------------------------------------| 
G-------------------------------------------------------------| 
D-------------------------------------------------------------| 
A--5----------------------------------------------------------| 
D-----0-0-0-0-0-0-0-3-5-6-5-3-5-5-3---0-0-0-0-0-0-0-0-0-0-0-0-| 

e---------|--------------------------|--------------------------------------| 
B---------|--------------------------|--------------------------------------| 
G---------|--------------------------|--------------------------------------| 
D---------|--------------------------|--------------------------------------| 
A-5/6\5\3-|5-------------------------|----------------------------------5-3-| 
D---------|----0-0-0-0-0-0-0-0-0-0-0-|3-5-6-5---3-0-0-0-0-0-0-0-0-0-0-0-----| 

e----------------------------------------------------------------| 
B----------------------------------------------------------------| 
G----------------------------------------------------------------| 
D----------------------------------------------------------------| 
A--5-------------------------------------------------------------| 
D-----0-0-0-0-0-0-0-3-5-6-5-3-5-5-3---0-0-0-0-0-0-0-0-0-0-0-(7)\-| 


Pre-Chorus 

    (Bdim/F)                       (C7/E)                     Am6/9 Am 
e---------------------------------|--------------------------|----------------------------------------------| 
B---------------------------------|--------------------------|----------------------------------------------| 
G---------------------------------|--------------------------|----------------------------------------------| 
D---------------------------------|--------------------------|9---7-----9---7-----9---7-----9---10----------| 
A-2h3p2---2h3p2---2h3p2---2h3p2---|1h3p1---1h3p1---1h3p1-----|8---7-----8---7-----8---7-----8----7----------| 
D-------3-------3-------3-------3-|------2-------2-------2~--|7---7-----7---7-----7---7-----7----7----------| 

  Fmaj7                             E5                        Bbmaj7#11 (not 100% sure 
                                                                      about this chord) 
e--0------------------------------|-0------------------------|-0--------------------------------------------| 
B--x------------------------------|-0------------------------|-3--------------------------------------------| 
G--2------------------------------|-x------------------------|-2--------------------------------------------| 
D--3------------------------------|-2------------------------|-3--------------------------------------------| 
A--3------------------------------|-2------------------------|-1--------------------------------------------| 
D--3------------------------------|-2------------------------|----------------------------------------------| 


Chorus: 

   Gm                   Eb                   Dm                G/B  Bdim 
e----------------------|--------------------|------------------|---------------------| 
B----------------------|--------------------|------------------|---------------------| 
G----------------------|--------------------|------------------|0---4-4-4-4-4-4-4----| 
D--5-------------------|1-------------------|7-----------------|3---3-3-3-3-3-3-3----| 
A--5-------------0-1-3-|1-------------3-5-6-|5-----------------|2---2-2-2-2-2-2-2----| 
D--5---5-5-5-5-5-------|1---1-1-1-1-1-------|0---0-0-0-0-0-0-0-|---------------------| 

  Bb                    F/A                  C5    Bb5     Ab5   G5    C5   D5   C5   G5 F5 
e----------------------|--------------------|--------------------------------------------------------| 
B----------------------|--------------------|13-----11------9-----8----13-/-15---13---8---6----------| 
G----------------------|--------------------|12-----10------8-----7----12-/-14---12---7---5----------| 
D--8-------------------|7-------------------|10------8------6-----5----10-/-12---10---5---3----------| 
A--8-------------------|8-------------------|--------------------------------------------------------| 
D--8---8-8-8-8-8-8-8-8-|7---7-7-7-7-7-7-7-7-|--------------------------------------------------------| 

  Cm6/9              (play this riff 5 times 
                              and end) 
e------------------------|| 
B--3--3----3--3---------o|| 
G--2--2----2--2----------|| 
D--1--1----1--1----------|| 
A--3--3----3--3---------o|| 
D------------------------|| 

Here's the song structure with lyrics, so you can see how it all goes together! 


Intro:   Bdim  C7    Am   Am7/G   Fmaj7  E7sus4 


Verse: 
                 Dm 
Maybe red's like roses, maybe it's the pool of blood the innocents will lay in when in 
the end 
you've failed to save them. 
            Dm 
Their dying eyes are wide and white like snow, and now they know the cost of trusting 
you is obliteration 


Pre-Chorus 

Bdim/F       C7/E     Am6/9  Am               Am6/9  Am     Am6/9  Am 
Mirrors will shatter,          crushed by the weight of the world 
Fmaj7                E5      Bbmaj7#11 
     The pillars collapse in shame. 


Chorus: 
               Gm                   Eb                   Dm                       G/B   Bdim 
There'll be no rest, there'll be no love, there'll be no hero in the end who will rise above 
            Bb                  F/A 
And when it ends, the good will crawl 
    C5                 Bb5               Ab5         G5              C5   D5   C5  G5  F5 
The shining light will sink in darkness, victory for hate incarnate, mis - e - ry and 
pain for all 
             Cm6/9 
When   it    falls 

************************************ 
  

cifra enviadasem correções
enviado porenviada por:deivcavalcanti
top 5 | jeff williams
top rock'n roll
Outras músicas do artista letras do(a) Jeff Williams
Top cifras »Top artistas »
Petaxxon Comunicação Online
Cifras.com.br - Melhor e mais completo site de cifras e tablaturas do Brasil
Mais de 1 milhão de acordes de músicas cadastradas desde 2003
As informações contidas no nosso site são colaborações de seus usuários e podem conter erros, sendo assim, não nos responsabilizamos sobre nenhuma destas.
close
menos
mais
close
Cor dos acordes:

Cor da letra:

 

save
close
close
 
redimensionar