Cifras e Tablaturas
Jeremih

Jeremih

Paradise

Cifras Cancelar Versão de Impressão
cifras

Jeremih - Paradise

fixar na tela  
Exibindo: vídeo-aula ver clipes redimensionar

Tom:

  
Intro 

e|---6-----6-----5-----5----| 
B|--6-6---6-6---6-6---6-6---| 
G|-7---7-7---7-7---7-7---7--|  
D|8-----8-----7-----7-------| 
A|--------------------------| 
E|--------------------------| 


Verse 

Woke up at home... 

e|---6-----6-----5-----5-----4-----4-----3-----3----| 
B|--6-6---6-6---6-6---6-6---6-6---6-6---6-6---6-6---| 
G|-7---7-7---7-7---7-7---7-7---7-7---7-7---7-7---7--| 
D|8-----8-----7-----7-----6-----6-----5-----5-------| 
A|--------------------------------------------------| 
E|--------------------------------------------------| 

Wake and bake... 

e|---6-----6-----5-----5-----4-----4-----3----------| 
B|--6-6---6-6---6-6---6-6---6-6---6-6---6-6---6--6--| 
G|-7---7-7---7-7---7-7---7-7---7-7---7-7---7-7--7---| 
D|8-----8-----7-----7-----6-----6-----5-----5--7----| 
A|--------------------------------------------------| 
E|--------------------------------------------------| 


Chorus 

I knew life... 

e|---6-----5-----4-----3-----6-----6-----6----------| 
B|--6-6---6-6---6-6---6-6---8-8---8-8---8-8---8--8--| 
G|-7---7-7---7-7---7-7---7-8---8-8---8-8---8-8--8---| 
D|8-----7-----6-----5-----8-----8-----8-----8--7----| 
A|--------------------------------------------------| 
E|--------------------------------------------------| 

It gets better... 

e|6--5--4--3------------------------------------------10------| 
B|6--6--6--6--------11----------13---------11---------10------| 
G|7--7--7--7------12--12------12--12-----11--11-----10--10----| 
D|8--7--6--5----13------13--13------13-13------13-10------10--| 
A|------------10----------10----------9----------8------------| 
E|------------------------------------------------------------| 

--------------------------^On the last Chorus, this second 10 becomes an 11 on the low E string 


Bridge 

Sooo... 

e|---6-----6-----5-----8-----6-----6-----5----------| 
B|--6-6---6-6---6-6---6-6---6-6---6-6---6-6---5--5--| 
G|-6---6-6---6-5---5-5---5-6---6-6---6-5---5-5--5---| 
D|8-----8-----7-----7-----8-----8-----7-----6--5----| 
A|--------------------------------------------------| 
E|--------------------------------------------------| 

e|---------------------------------------------------9------------------| 
B|-----11---------13----11----10---------10----11--------------11-------| 
G|---11--11-----11--11------10--10-----10--10------11-11-----11--11-----| 
D|-11------11-11------11--10------10-10------10--11-----11-11------11---| 
A|9----------9----------8-----------8----------9----------9----------8--| 
E|----------------------------------------------------------------------| 
                                                                     (let ring) 

Outro 

e|---6-----6-----6-----6----| 
B|--6-6---6-6---6-6---6-6---| 
G|-7---7-7---7-7---7-7---7--|  
D|8-----8-----8-----8-------| 
A|--------------------------| 
E|--------------------------| 
  

top 5 | jeremih
top rock'n roll
Outras músicas do artista letras do(a) Jeremih
2.
Oui
Top cifras »Top artistas »
Petaxxon Comunicação Online
Cifras.com.br - Melhor e mais completo site de cifras e tablaturas do Brasil
Mais de 1 milhão de acordes de músicas cadastradas desde 2003
As informações contidas no nosso site são colaborações de seus usuários e podem conter erros, sendo assim, não nos responsabilizamos sobre nenhuma destas.
close
menos
mais
close
Cor dos acordes:

Cor da letra:

 

save
close
close
 
redimensionar