Cifras e Tablaturas
Jeremy Passion

Jeremy Passion

Nothing

Cifras Cancelar Versão de Impressão Print

Jeremy Passion - Nothing

Tom:

  • 0:00 / 0:00
  			Intro 

e|--------0-|--2-----2---------------------------0-|--1-----1--4-----4--7-----7--7--5--3-| 
B|------3---|--3-----3--3-----3---------------3----|--0-----0--3-----3--6-----6--6--5--3-| 
G|--2/4-----|--4-----4--4-----4--4----4--2/4-------|--1-----1--4-----4--7-----7--7--5--4-| 
D|----------|--4-----------------4----4------------|-------------------------------------| 
A|----------|--------------------------------------|-------------------------------------| 
E|----------|--3--3--------3--------3--------------|--0--0--------0--------0-------------| 

e|---------------5------------------|---------------------------------------| 
B|-5----5-----5--------5-------5----|-4-----4--4-----4--4-------------------| 
G|-5----5--5-----------5-------5----|-5-----5--5-----5--5-------------------| 
D|-5----5--------------5-------5----|-5-----5--5-----5--5-------------------| 
A|----------------------------------|---------------------------------------| 
E|-5--5-------------5----5--5-----5-|-5--5--------5-----5-------------------| 


verse 1 

e|------------------------------------|-------------------------------------| 
B|----------3-----------------3-------|----------3-----------------3--------| 
G|-------4-----4-----------4-----4----|-------4-----4-----------4-----4-----| 
D|----4-----------4-----4-----------4-|----3-----------3-----3-----------3--| 
A|------------------------------------|-------------------------------------| 
E|-3-----------------3----------------|-3-----------------3-----------------| 

e|------------------------------------|-------------------------------------| 
B|----------5-----------------5-------|----------4--------4-----------------| 
G|-------5-----5-----------5-----5----|-------5-----5-----5-----------------| 
D|----5-----------5-----5-----------5-|----5-----------5--5-----------------| 
A|------------------------------------|-------------------------------------| 
E|-5-----------------5----------------|-5-----------------5-----------------| 

e|------------------------------------|-------------------------------------| 
B|----------3-----------------3-------|----------3-----------------3--------| 
G|-------4-----4-----------4-----4----|-------4-----4-----------4-----4-----| 
D|----4-----------4-----4-----------4-|----3-----------3-----3-----------3--| 
A|------------------------------------|-------------------------------------| 
E|-3-----------------3----------------|-3-----------------3-----------------| 

e|------------------------------------|-------------------------------------| 
B|----------5-----------------5-------|----------4--------4-----------------| 
G|-------5-----5-----------5-----5----|-------5-----5-----5-----------------| 
D|----5-----------5-----5-----------5-|----5-----------5--5-----------------| 
A|------------------------------------|-------------------------------------| 
E|-5-----------------5----------------|-5-----------------5-----------------| 

Pre-Chorus 

e|------------------------------------|----------0-----------------0--------| 
B|----------7-----------------7-------|-------0-----0-----------0-----0-----| 
G|-------7-----7-----------7-----7----|----0-----------0-----0-----------0--| 
D|----7-----------7-----7-----------7-|-------------------------------------| 
A|------------------------------------|-------------------------------------| 
E|-7-----------------7----------------|-0-----------------0-----------------| 

e|--------------------------| 
B|----------5--------5------| 
G|-------5-----5-----5------| 
D|----5-----------5--5------| 
A|--------------------------| 
E|-5-----------------5------| 

Chorus 

e|------------------------------------|-------------------------------------| 
B|----------3-----------------3-------|----------3-----------------3--------| 
G|-------4-----4-----------4-----4----|-------4-----4-----------4-----4-----| 
D|----4-----------4-----4-----------4-|----3-----------3-----3-----------3--| 
A|------------------------------------|-------------------------------------| 
E|-3-----------------3----------------|-3-----------------3-----------------| 

e|------------------------------------|-------------------------------------| 
B|----------5-----------------5-------|----------4-----------------4--------| 
G|-------5-----5-----------5-----5----|-------5-----5-----------5-----5-----| 
D|----5-----------5-----5-----------5-|----5-----------5-----5-----------5--| 
A|------------------------------------|-------------------------------------| 
E|-5-----------------5----------------|-5-----------------5-----------------| 

e|------------------------------------|-------------------------------------| 
B|----------3-----------------3-------|----------3-----------------3--------| 
G|-------4-----4-----------4-----4----|-------4-----4-----------4-----4-----| 
D|----4-----------4-----4-----------4-|----3-----------3-----3-----------3--| 
A|------------------------------------|-------------------------------------| 
E|-3-----------------3----------------|-3-----------------3-----------------| 

e|------------------------------------|-------------------------------------| 
B|----------5-----------------5-------|----------4--------4-----------------| 
G|-------5-----5-----------5-----5----|-------5-----5-----5-----------------| 
D|----5-----------5-----5-----------5-|----5-----------5--5-----------------| 
A|------------------------------------|-------------------------------------| 
E|-5-----------------5----------------|-5-----------------5-----------------| 

verse 2 

e|------------------------------------|-------------------------------------| 
B|----------3-----------------3-------|----------3-----------------3--7--6--| 
G|-------4-----4-----------4-----4----|-------4-----4-----------4-----7--6--| 
D|----4-----------4-----4-----------4-|----3-----------3-----3--------7--6--| 
A|------------------------------------|-------------------------------------| 
E|-3-----------------3----------------|-3-----------------3-----------7--6--| 

e|------------------------------------|-------------------------------------| 
B|----------5-----------------5-------|----------4-----------------4--------| 
G|-------5-----5-----------5-----5----|-------5-----5-----------5-----5-----| 
D|----5-----------5-----5-----------5-|----5-----------5-----5-----------5--| 
A|------------------------------------|-------------------------------------| 
E|-5-----------------5----------------|-5-----------------5-----------------| 

e|------------------------------------|-------------------------------------| 
B|----------3-----------------3-------|----------3-----------------3--------| 
G|-------4-----4-----------4-----4----|-------4-----4-----------4-----4-----| 
D|----4-----------4-----4-----------4-|----3-----------3-----3-----------3--| 
A|------------------------------------|-------------------------------------| 
E|-3-----------------3----------------|-3-----------------3-----------------| 

e|------------------------------------|-------------------------------------| 
B|----------5-----------------5-------|----------4--------4-----------------| 
G|-------5-----5-----------5-----5----|-------5-----5-----5-----------------| 
D|----5-----------5-----5-----------5-|----5-----------5--5-----------------| 
A|------------------------------------|-------------------------------------| 
E|-5-----------------5----------------|-5-----------------5-----------------| 

Pre-Chorus 

e|------------------------------------|----------0-----------------0--------| 
B|----------7-----------------7-------|-------0-----0-----------0-----0-----| 
G|-------7-----7-----------7-----7----|----0-----------0-----0-----------0--| 
D|----7-----------7-----7-----------7-|-------------------------------------| 
A|------------------------------------|-------------------------------------| 
E|-7-----------------7----------------|-0-----------------0-----------------| 

e|------------------------------------|-------------------------------------| 
B|----------5-----------------5-------|----------4--------4-----------------| 
G|-------5-----5-----------5-----5----|-------5-----5-----5-----------------| 
D|----5-----------5-----5-----------5-|----5-----------5--5-----------------| 
A|------------------------------------|-------------------------------------| 
E|-5-----------------5----------------|-5-----------------5-----------------| 

Chorus 

e|------------------------------------|-------------------------------------| 
B|----------3-----------------3-------|----------3-----------------3--------| 
G|-------4-----4-----------4-----4----|-------4-----4-----------4-----4-----| 
D|----4-----------4-----4-----------4-|----3-----------3-----3-----------3--| 
A|------------------------------------|-------------------------------------| 
E|-3-----------------3----------------|-3-----------------3-----------------| 

e|------------------------------------|-------------------------------------| 
B|----------5-----------------5-------|----------4-----------------4--------| 
G|-------5-----5-----------5-----5----|-------5-----5-----------5-----5-----| 
D|----5-----------5-----5-----------5-|----5-----------5-----5-----------5--| 
A|------------------------------------|-------------------------------------| 
E|-5-----------------5----------------|-5-----------------5-----------------| 

e|------------------------------------|-------------------------------------| 
B|----------3-----------------3-------|----------3-----------------3--------| 
G|-------4-----4-----------4-----4----|-------4-----4-----------4-----4-----| 
D|----4-----------4-----4-----------4-|----3-----------3-----3-----------3--| 
A|------------------------------------|-------------------------------------| 
E|-3-----------------3----------------|-3-----------------3-----------------| 

e|------------------------------------|-------------------------------------| 
B|----------5-----------------5-------|----------4--------4-----------------| 
G|-------5-----5-----------5-----5----|-------5-----5-----5-----------------| 
D|----5-----------5-----5-----------5-|----5-----------5--5-----------------| 
A|------------------------------------|-------------------------------------| 
E|-5-----------------5----------------|-5-----------------5-----------------| 

Bridge 

e|------------------------------------|----------0-----------------0--------| 
B|----------7-----------------7-------|-------0-----0-----------0-----0-----| 
G|-------7-----7-----------7-----7----|----0-----------0-----0-----------0--| 
D|----7-----------7-----7-----------7-|-------------------------------------| 
A|------------------------------------|-------------------------------------| 
E|-7-----------------7----------------|-0-----------------0-----------------| 

e|------------------------------------|-------------------------------------| 
B|----------5-----------------5-------|----------4-----------------4--------| 
G|-------5-----5-----------5-----5----|-------5-----5-----------5-----5-----| 
D|----5-----------5-----5-----------5-|----5-----------5-----5-----------5--| 
A|------------------------------------|-------------------------------------| 
E|-5-----------------5----------------|-5-----------------5-----------------| 

e|------------------------------------|----------0-----------------0--------| 
B|----------7-----------------7-------|-------0-----0-----------0-----0-----| 
G|-------7-----7-----------7-----7----|----0-----------0-----0-----------0--| 
D|----7-----------7-----7-----------7-|-------------------------------------| 
A|------------------------------------|-------------------------------------| 
E|-7-----------------7----------------|-0-----------------0-----------------| 

e|------------------------------------|-------------------------------------| 
B|----------5-----------------5-------|----------4--------4-----------------| 
G|-------5-----5-----------5-----5----|-------5-----5-----5-----------------| 
D|----5-----------5-----5-----------5-|----5-----------5--5-----------------| 
A|------------------------------------|-------------------------------------| 
E|-5-----------------5----------------|-5-----------------5-----------------| 



Chorus 

e|------------------------------------|-------------------------------------| 
B|----------3-----------------3-------|----------3-----------------3--------| 
G|-------4-----4-----------4-----4----|-------4-----4-----------4-----4-----| 
D|----4-----------4-----4-----------4-|----3-----------3-----3-----------3--| 
A|------------------------------------|-------------------------------------| 
E|-3-----------------3----------------|-3-----------------3-----------------| 

e|------------------------------------|-------------------------------------| 
B|----------5-----------------5-------|----------4-----------------4--------| 
G|-------5-----5-----------5-----5----|-------5-----5-----------5-----5-----| 
D|----5-----------5-----5-----------5-|----5-----------5-----5-----------5--| 
A|------------------------------------|-------------------------------------| 
E|-5-----------------5----------------|-5-----------------5-----------------| 

e|------------------------------------|-------------------------------------| 
B|----------3-----------------3-------|----------3-----------------3--------| 
G|-------4-----4-----------4-----4----|-------4-----4-----------4-----4-----| 
D|----4-----------4-----4-----------4-|----3-----------3-----3-----------3--| 
A|------------------------------------|-------------------------------------| 
E|-3-----------------3----------------|-3-----------------3-----------------| 

e|------------------------------------|-------------------------------------| 
B|----------5-----------------5-------|----------4--------4-----------------| 
G|-------5-----5-----------5-----5----|-------5-----5-----5-----------------| 
D|----5-----------5-----5-----------5-|----5-----------5--5-----------------| 
A|------------------------------------|-------------------------------------| 
E|-5-----------------5----------------|-5-----------------5-----------------| 

Outro 

e|------------------------------------|-------------------------------------| 
B|----------3-----------------3-------|----------3-----------------3--------| 
G|-------4-----4-----------4-----4----|-------4-----4-----------4-----4-----| 
D|----4-----------4-----4-----------4-|----3-----------3-----3-----------3--| 
A|------------------------------------|-------------------------------------| 
E|-3-----------------3----------------|-3-----------------3-----------------| 

e|------------------------------------|-------------------------------------| 
B|----------5-----------------5-------|----------4-----------------4--------| 
G|-------5-----5-----------5-----5----|-------5-----5-----------5-----5-----| 
D|----5-----------5-----5-----------5-|----5-----------5-----5-----------5--| 
A|------------------------------------|-------------------------------------| 
E|-5-----------------5----------------|-5-----------------5-----------------| 

e|------------------------------------|-------------------------------------| 
B|----------3-----------------3-------|----------3-----------------3--------| 
G|-------4-----4-----------4-----4----|-------4-----4-----------4-----4-----| 
D|----4-----------4-----4-----------4-|----3-----------3-----3-----------3--| 
A|------------------------------------|-------------------------------------| 
E|-3-----------------3----------------|-3-----------------3-----------------| 

e|------------------------------------|-------------------------------------| 
B|----------5-----------------5-------|----------4--------4-----------------| 
G|-------5-----5-----------5-----5----|-------5-----5-----5-----------------| 
D|----5-----------5-----5-----------5-|----5-----------5--5-----------------| 
A|------------------------------------|-------------------------------------| 
E|-5-----------------5----------------|-5-----------------5-----------------| 

e|---| 
B|-3-| 
G|-4-| 
D|-4-| 
A|---| 
E|-3-| 



************************************ 

| /  Slide up 

************************************ 
    	

enviado porenviado por: robepoiel
cifra enviadaCorrigida por: sem correções
logo top cifrasComente
ico música do artistaMúsicas deste artista
ico curtiuCurtiu?
ico destaqueDestaque
Petaxxon Comunicação Online

Cifras.com.br - Melhor e mais completo site de cifras e tablaturas do Brasil Mais de 1 milhão de acordes de músicas cadastradas desde 2003
As informações contidas no nosso site são colaborações de seus usuários e podem conter erros, sendo assim, não nos responsabilizamos sobre nenhuma destas.

close
menos
mais
close
Cor dos acordes:

Cor da letra:

close
Alinhar acordes a direita Alinhar acordes a esquerda Alinhar acordes em baixo Alinhar acordes no topo
close
  Mostrar todos os acordes Esconder acordes muito fáceis Esconder acordes fáceis Esconder acordes intermediários
redimensionar
glossário