Cifras e Tablaturas
Jeromes Dream

Jeromes Dream

My Recent Left Right Brain Argument

Cifras Cancelar Versão de Impressão
cifras

Jeromes Dream - My Recent Left Right Brain Argument

fixar na tela  
Exibindo: vídeo-aula ver clipes redimensionar

Tom:

  
* = Palm mute 

e|---------------------------1717171717171717----------------------------------18----------------18-------| 
B|--------------1818--181818------------------------------1818-181818-------16----16----------16----16----| 
G|-1919--191919--------------1515151515151515-1919-191919----------------15----------15----15----------15-| 
D|--------------1515--151515------------------------------1515-151515-13----------------13----------------| x2 
A|-1717--171717-------------------------------1717-171717-------------------------------------------------| 
D|--------------------------------------------------------------------------------------------------------| 

    e|----------------------18181818----------| 
    B|--1616-1616-1616-1616----------------0--| 
GTR G|--1515-1515-1515-1515-16161616-15----0--| 
 1  D|----------------------------------------| x2  
    A|--1313-1313-1313-1313----------13-14-13-| 
    D|----------------------------------------| 

    e|-12121212121212121212-------------------| 
    B|----------------------------------------| 
GTR G|----------------------------------------| 
 2  D|----------------------------------------| x2 
    A|----------------------------------------| 
    D|----------------------------------------| 

e|--------------------------------------------------------------------------------------| 
B|--------------------------------------0---1616-1616-1616-1616-------------------------| 
G|-----------------16-16-16-15-15-15----0---1515-1515-1515-1515-16-16-16-15-15-15-------| 
D|--------------------------------------------------------------------------------------| 
A|-6-6-6-6-6-6-6-6-14-14-14-13-13-13-14-13--1313-1313-1313-1313-14-14-14-13-13-13-13-13-| 
D|-0-0-0-0-0-0-0-0----------------------------------------------------------------0--0--| 

e|---------------------------1717171717171717----------------------------------18----------------18-------| 
B|--------------1818--181818------------------------------1818-181818-------16----16----------16----16----| 
G|-1919--191919--------------1515151515151515-1919-191919----------------15----------15----15----------15-| 
D|--------------1515--151515------------------------------1515-151515-13----------------13----------------| x1 
A|-1717--171717-------------------------------1717-171717-------------------------------------------------| 
D|--------------------------------------------------------------------------------------------------------| 

    e|---------------------------------------------------------------------------| 
    B|-------15-------15----16----16----16----16---------------------------------| 
GTR G|-19-19----19-19----19----19----19----19----19-20-20-20-20-20-20-20--19--21-| 
 1  D|---------------------------------------------------------------------------| x2 
    A|----------------------------------------------18-18-18-18-18-18------------| 
    D|---------------------------------------------------------------------------| 

    e|---------------------------------------------------------------------------| 
    B|---------------------------------------------------------------------------| 
GTR G|---------------------------------------------------------------------------| 
 2  D|-0-------------------------------------------------------------------------| x2 
    A|-0-(Ring out)--------------------------------------------------------------| 
    D|-0-------------------------------------------------------------------------| 

    e|---------------------------------------------------------------------------| 
    B|-------15-------15----16----16----16----16---------------------------------| 
GTR G|-19-19----19-19----19----19----19----19----19-20-20-20-20-20-20-20--19--21-| 
 1  D|---------------------------------------------------------------------------| x2 
    A|----------------------------------------------18-18-18-18-18-18------------| 
    D|---------------------------------------------------------------------------| 

No ring out last two times. 

e|------------------------------------------------------------| 
B|------------------------------------------------------------| 
G|-7-7-7-7-7-7-8-8-8-8-8-8-13-13-13-13-------13-13-13-13---13-| 
D|------------------------------------------------------------| x4 
A|-5-5-5-5-5-5-6-6-6-6-6-6-11-11-11-11-0-0-0-11-11-11-11-0-11-| 
D|-0-0-0-0-0-0-0-0-0-0-0-0-0--0--0--0--0-0-0-0--0--0--0--0----| 
                                       * * * 

e|--------------| 
B|--------------| 
G|-7------------| 
D|--------------| 
A|-5-(Ring out)-| 
D|-0------------| 
  

top 5 | jeromes dream
top rock'n roll
Outras músicas do artista letras do(a) Jeromes Dream
Top cifras »Top artistas »
Petaxxon Comunicação Online
Cifras.com.br - Melhor e mais completo site de cifras e tablaturas do Brasil
Mais de 1 milhão de acordes de músicas cadastradas desde 2003
As informações contidas no nosso site são colaborações de seus usuários e podem conter erros, sendo assim, não nos responsabilizamos sobre nenhuma destas.
close
menos
mais
close
Cor dos acordes:

Cor da letra:

 

save
close
close
 
redimensionar