Cifras e Tablaturas
Jesse McCartney

Jesse McCartney

Punch Drunk Recreation

Cifras Cancelar Versão de Impressão

Jesse McCartney - Punch Drunk Recreation

Tom:

  			
Intro 
e|-----------------------------| 
B|-----------------------------| 
G|4---5---4---5---4---5---4---5| 
D|4---5---4---5---4---5---4---5|   
A|2---3---2---3---2---3---2---5| 
E|-----------------------------| 

verse 1 
e|-------------------------| 
B|-------------------------| 
G|4---5---4---5---4---5----| x 2 
D|4---5---4---5---4---5----|   
A|2---3---2---3---2---3----| 
E|-------------------------| 

e|-----------------------------| 
B|4---5---4---5---4---5-------4| 
G|--------------------------4-4|    
D|4---5---4---5---4---5---4-4-4|   
A|2---3---2---3---2---3---2-2-2| 
E|-----------------------------| 

Chorus 
e|--------------------------------| 
B|7-------6-------5-------5-------| 
G|7-------7-------5-------6-------|   x2 
D|7-------5-------5-------7-------| 
A|------------------------5-------| 
E|7-------6-------5---------------| 

e|------------------------3-------| 
B|7-------6-------5-------5-------| 
G|7-------7-------5-------5-------| 
D|7-------5-------5-------0-------| 
A|--------------------------------| 
E|7-------6-------5---------------| 

Transition, verse 2 
e|---------------------------------------------| 
B|---------------------------------------------| 
G|4---5---4---5---4---5---4---5---4---5---4---5| 
D|4---5---4---5---4---5---4---5---4---5---4---5|   
A|2---3---2---3---2---3---2---5---2---3---2---3| 
E|---------------------------------------------| 

e|-------------------------| 
B|-------------------------| 
G|4---5---4---5---4---5----| x 2 
D|4---5---4---5---4---5----|   
A|2---3---2---3---2---3----| 
E|-------------------------| 

e|-----------------------------| 
B|4---5---4---5---4---5-------4| 
G|--------------------------4-4|    
D|4---5---4---5---4---5---4-4-4|   
A|2---3---2---3---2---3---2-2-2| 
E|-----------------------------| 

Chorus 
e|--------------------------------| 
B|7-------6-------5-------5-------| 
G|7-------7-------5-------6-------|   x2 
D|7-------5-------5-------7-------| 
A|------------------------5-------| 
E|7-------6-------5---------------| 

e|------------------------3-------| 
B|7-------6-------5-------5-------| 
G|7-------7-------5-------5-------| 
D|7-------5-------5-------0-------| 
A|--------------------------------| 
E|7-------6-------5---------------| 

bridge 
e|------------------------------------|-------------------------------------| 
B|10h12p10-10------12--10h12p10-10----|10h12p10-10------10-12-10h12p10-10---| 
G|--------11--11---------------11--11-|--------11--11--------11-------11--11| 
D|------------------------------------|-------------------------------------| 
A|------------------------------------|-------------------------------------| 
E|------------------------------------|-------------------------------------| 

e|----------------| 
B|3-----------2---| 
G|2-----------2---|   x3   
D|4-----------2---| 
A|2---------------| 
E|------------2---| 

e|---------2----2---------| 
B|----3----2----2---------| 
G|----2----2----2---------|      
D|----4----2----2---------| 
A|----2----0----0---------| 
E|------------------------| 

e|--------2-2-| 
B|3-------2-2-| 
G|2-------2-2-|   
D|4-------2-2-| 
A|2-------0-2-| 
E|------------| 


e|--------------------------------| 
B|7-------6-------5-------5-------| 
G|7-------7-------5-------6-------|   x3 
D|7-------5-------5-------7-------| 
A|------------------------5-------| 
E|7-------6-------5---------------| 

e|------------------------3-------| 
B|7-------6-------5-------5-------| 
G|7-------7-------5-------5-------| 
D|7-------5-------5-------0-------| 
A|--------------------------------| 
E|7-------6-------5---------------| 
  

************************************ 

| h  Hammer-on 
| p  Pull-off 

************************************ 
    	
fixar
fixar inscrever-se

enviado porenviado por: educastilho
cifra enviadaCorrigida por: sem correções
logo top cifrasComente
ico música do artistaMúsicas deste artista
ico curtiuCurtiu?
ico destaqueDestaque
Petaxxon Comunicação Online

Cifras.com.br - Melhor e mais completo site de cifras e tablaturas do Brasil Mais de 1 milhão de acordes de músicas cadastradas desde 2003
As informações contidas no nosso site são colaborações de seus usuários e podem conter erros, sendo assim, não nos responsabilizamos sobre nenhuma destas.

close
menos
mais
close
Cor dos acordes:

Cor da letra:

close
Alinhar acordes a direita Alinhar acordes a esquerda Alinhar acordes em baixo Alinhar acordes no topo
close
  Mostrar todos os acordes Esconder acordes muito fáceis Esconder acordes fáceis Esconder acordes intermediários
redimensionar
glossário