Cifras e Tablaturas
Jim Black

Jim Black

Maybe

Cifras Cancelar Versão de Impressão
cifras

Jim Black - Maybe

fixar na tela  
Exibindo: vídeo-aula ver clipes redimensionar

Tom:

  Intro X2 
e|----------------------------------| 
B|--0----0---0---0----0---0-------2-| 
G|----2---2----2---2----2---2--3--3-| 
D|--0--------0--------0--------4--4-| 
A|--2--------2--------2--------4--4-| 
E|--3--------3--------2--------2--2-| 

 verse 1 x4 
e|----------------------------------| 
B|--0---0----0---0----0---0-------2-| 
G|----2---2----2---2----2---2--3--3-| 
D|--0--------0--------0--------4--4-| 
A|--2--------2--------2--------4--4-| 
E|--3--------3--------2--------2--2-| 

 verse 2 x1 
e|--0---0----------------------------------------0--0-----------------| 
B|--0---0------7----5---------0---0----0---0-----0--0-----7---5-------| 
G|--1---1---7--7----5--4--2-----2---2----2---2---1--1--7--7---5--4--2-| 
D|--2---2---7--7----5--4--2---0--------0---------2--2--7--7---5--4--2-| 
A|--2---2---5--5----3--2--0---2--------2---------2--2--5--5---3--2--0-| 
E|--0---0---------------------3--------3---------0--0-----------------| 

 Bridge 2x 
e|-------------------------------------| 
B|--0----0---0---0----0---0----0---0---| 
G|----2---2----2---2----2---2----2---2-| 
D|--0--------0--------0--------0-------| 
A|--2--------2--------2--------2-------| 
E|--3--------3--------2--------3-------| 

 ChorusRepeat Until Cue 
e|------------------------------------------------------| 
B|------------------------------------------------------| 
G|--13--------13--------11---14---11---14--------11---9-| 
D|--11---14---11---14---9----12---9----12---12---9----7-| 
A|--9----12---9----12---7----10---7----10---10---7----5-| 
E|-------10--------10-----------------------8-----------| 

 Outro 2X Noisy background, then with steady beat 
e|----------------------------------| 
B|--0----0---0---0----0---0-------2-| 
G|----2---2----2---2----2---2--3--3-| 
D|--0--------0--------0--------4--4-| 
A|--2--------2--------2--------4--4-| 
E|--3--------3--------2--------2--2-| 
  

top 5 | jim black
top rock'n roll
Outras músicas do artista letras do(a) Jim Black
Top cifras »Top artistas »
Petaxxon Comunicação Online
Cifras.com.br - Melhor e mais completo site de cifras e tablaturas do Brasil
Mais de 1 milhão de acordes de músicas cadastradas desde 2003
As informações contidas no nosso site são colaborações de seus usuários e podem conter erros, sendo assim, não nos responsabilizamos sobre nenhuma destas.
close
menos
mais
close
Cor dos acordes:

Cor da letra:

 

save
close
close
 
redimensionar