Cifras e Tablaturas
Jim Henson

Jim Henson

The Muppets Show Theme

Cifras Cancelar Versão de Impressão Print

Jim Henson - The Muppets Show Theme

Tom:

  • 0:00 / 0:00
  			
e|-------------------------------------------------------| 
B|-------------------------------------------------------| 
G|--0-0----------------0-0-------------------------------| 
D|-------2-4-2-4-2-0--------2-4-2-0----------------------| 
A|-------------------------------------------------------| 
E|-------------------------------------------------------| 

e|--------------------------------------------------------| 
B|--------------------------------------------------------| 
G|--------------------------------------------------------| 
D|------0-------5-------0--------5---------0--2--4--------| 
A|--2-2---3-2-3----2-2----3-2-3----2-2-2-2----------------| 
E|--------------------------------------------------------| 

e|-------------------------------------------------------------------| 
B|-------------------------------------------------------------------| 
G|-------------------------------------------------------------------| 
D|--5-7-5-4-7-5-0-5-7-5-4-7-5--5-7-5-4-7-9-0-0--0-2-2-4-5-7----------| 
A|-------------------------------------------------------------------| 
E|-------------------------------------------------------------------| 
    	

enviado porenviado por: VsWorld
cifra enviadaCorrigida por: sem correções
logo top cifrasComente
ico música do artistaMúsicas deste artista
ico curtiuCurtiu?
ico destaqueDestaque
Petaxxon Comunicação Online

Cifras.com.br - Melhor e mais completo site de cifras e tablaturas do Brasil Mais de 1 milhão de acordes de músicas cadastradas desde 2003
As informações contidas no nosso site são colaborações de seus usuários e podem conter erros, sendo assim, não nos responsabilizamos sobre nenhuma destas.

close
menos
mais
close
Cor dos acordes:

Cor da letra:

close
Alinhar acordes a direita Alinhar acordes a esquerda Alinhar acordes em baixo Alinhar acordes no topo
close
  Mostrar todos os acordes Esconder acordes muito fáceis Esconder acordes fáceis Esconder acordes intermediários
redimensionar
glossário