Cifras e Tablaturas
Jim O'Rourke

Jim O'Rourke

Eureka

Cifras Cancelar Versão de Impressão

Jim O'Rourke - Eureka

Tom: A

  			
Intro Fingerpicked 
  A      D       A             D        A  
e|-----------------------5----5--7---------------0---------------------------| 
B|-5----8---7------------5------------3--5/7-----2---------5/7---5-----------| 
G|------------7--------6--------------2----------2--2------------------------| 
D|-7-----------------7----------------0----------2---------7/9---7-----------| 
A|----------5----------------------------------------------------------------| 
E|-5-------------------------------------------------------------------------| 

  Bm    D     A        Bm  D                    G 
e|----------0--2----7-----------------0---2TR-0------------------------------| 
B|-3------3-------5----5/7----3-----3-----------3-------3--3------------0----| 
G|-4---4----------------------4---4----------------4-------0-----------------| 
D|-4------0------------7/9----4----------------------------0-----------------| 
A|-2--------------0-----------2----------------------------------------------| 
E|---------------------------------------------------------3-----------------| 

verse 1 "Hello, Hello...." 
  D   F#  D   A    G   Em                  D         G D     A 
e|-2--2--2--2--2--5-----5---7--7--7--7h9----------5/7---5------0----------------0----| 
B|-3-----2-----3------------8-----8-------8-------------7------3----3---3--5/7--2----| 
G|-2-----2-----2------------7-----9-------9--9----------7--7---2----0---2-------2----| 
D|-0-----4-----0--------------------------9-------------------------0---0-------2--2-| 
A|-------------------0--------------------7------------------------------------------| 
E|------------------------------------------------------------------3----------------| 

verse 2/Main Repeating Melody 
  Bm      D       Bm   A       D    F#m     D       A 
e|----------------------------0-----2---5---2---5---5/7------0h2---0-------------| 
B|-3---5/7---------3---3---3--2---------3-------2--------3---------2-------------| 
G|-4---------2---------4------2---------2-------2--------2---------2-------------| 
D|-4---------0---------4----------------0-------4--------0-----------------------| 
A|-2-------------------2------0------------------------------------0-------------| 
E|-----------2-------------------------------------------------------------------| 


      D    F#m        D      A 
e|-2---5---2---5----5/7-------0h2---0----------------------2--0------------------| 
B|-----3-------2-----------3--------2--------------------------------------------| 
G|-----2-------2-----------2--------2--------------------------------------------| 
D|-----0-------4-----------0-----------------------------------------------------| 
A|----------------------------------0----------------0--1------------------------| 
E|-------------------------------------------------------------------------------| 

Repeat into infinity with trumpets and synth. 

************************************ 


| h   Hammer-on 
| p   Pull-off 
| /   Slide up 
| TR  Trill 

************************************ 
    	
fixar
fixar inscrever-se

enviado porenviado por: ang-letra
cifra enviadaCorrigida por: sem correções
logo top cifrasComente
ico música do artistaMúsicas deste artista
ico curtiuCurtiu?
ico destaqueDestaque
Petaxxon Comunicação Online

Cifras.com.br - Melhor e mais completo site de cifras e tablaturas do Brasil Mais de 1 milhão de acordes de músicas cadastradas desde 2003
As informações contidas no nosso site são colaborações de seus usuários e podem conter erros, sendo assim, não nos responsabilizamos sobre nenhuma destas.

close
menos
mais
close
Cor dos acordes:

Cor da letra:

close
Alinhar acordes a direita Alinhar acordes a esquerda Alinhar acordes em baixo Alinhar acordes no topo
close
  Mostrar todos os acordes Esconder acordes muito fáceis Esconder acordes fáceis Esconder acordes intermediários
redimensionar
glossário